0
SECTION
2
HEADER
9
$INSUNITS
70
4
9
$ACADVER
1
AC1014
9
$HANDSEED
5
FFFF
0
ENDSEC
0
SECTION
2
TABLES
0
TABLE
2
VPORT
5
8
100
AcDbSymbolTable
0
ENDTAB
0
TABLE
2
LTYPE
5
5
100
AcDbSymbolTable
0
LTYPE
5
14
100
AcDbSymbolTableRecord
100
AcDbLinetypeTableRecord
2
BYBLOCK
70
0
0
LTYPE
5
15
100
AcDbSymbolTableRecord
100
AcDbLinetypeTableRecord
2
BYLAYER
70
0
0
ENDTAB
0
TABLE
2
LAYER
5
2
100
AcDbSymbolTable
70
2
0
LAYER
5
50
100
AcDbSymbolTableRecord
100
AcDbLayerTableRecord
2
0
70
0
6
CONTINUOUS
0
ENDTAB
0
TABLE
2
STYLE
5
3
100
AcDbSymbolTable
70
1
0
STYLE
5
11
100
AcDbSymbolTableRecord
100
AcDbTextStyleTableRecord
2
STANDARD
70
0
0
ENDTAB
0
TABLE
2
VIEW
5
6
100
AcDbSymbolTable
70
0
0
ENDTAB
0
TABLE
2
UCS
5
7
100
AcDbSymbolTable
70
0
0
ENDTAB
0
TABLE
2
APPID
5
9
100
AcDbSymbolTable
70
2
0
APPID
5
12
100
AcDbSymbolTableRecord
100
AcDbRegAppTableRecord
2
ACAD
70
0
0
ENDTAB
0
TABLE
2
DIMSTYLE
5
A
100
AcDbSymbolTable
70
1
0
ENDTAB
0
TABLE
2
BLOCK_RECORD
5
1
100
AcDbSymbolTable
70
1
0
BLOCK_RECORD
5
1F
100
AcDbSymbolTableRecord
100
AcDbBlockTableRecord
2
*MODEL_SPACE
0
BLOCK_RECORD
5
1B
100
AcDbSymbolTableRecord
100
AcDbBlockTableRecord
2
*PAPER_SPACE
0
ENDTAB
0
ENDSEC
0
SECTION
2
BLOCKS
0
BLOCK
5
20
100
AcDbEntity
100
AcDbBlockBegin
2
*MODEL_SPACE
0
ENDBLK
5
21
100
AcDbEntity
100
AcDbBlockEnd
0
BLOCK
5
1C
100
AcDbEntity
100
AcDbBlockBegin
2
*PAPER_SPACE
0
ENDBLK
5
1D
100
AcDbEntity
100
AcDbBlockEnd
0
ENDSEC
0
SECTION
2
ENTITIES
0
LWPOLYLINE
5
100
100
AcDbEntity
8
OUTER_PROFILES
100
AcDbPolyline
90
20
70
1
43
0.0
10
405
20
182.98575203952618
10
405
20
198.67150407905231
10
0
20
198.67150407905228
10
3.5527136788005009e-14
20
182.98575203952618
10
-0.89999999999996305
20
182.98575203952618
10
-0.89999999999999858
20
184.33575203952617
10
-10
20
184.33575203952617
10
-9.9999999999999645
20
14.335752039526186
10
-0.89999999999996305
20
14.335752039526186
10
-0.89999999999999858
20
15.685752039526184
10
0
20
15.685752039526193
10
0
20
0
10
405
20
-8.8817841970012523e-15
10
405
20
15.685752039526193
10
405.90000000000003
20
15.685752039526202
10
405.90000000000003
20
14.335752039526204
10
415
20
14.335752039526177
10
415
20
184.33575203952617
10
405.90000000000003
20
184.33575203952617
10
405.90000000000003
20
182.98575203952618
0
SPLINE
5
101
100
AcDbEntity
8
INTERIOR_PROFILES
100
AcDbSpline
70
0
71
2
72
6
73
3
74
0
42
0.000000001
43
0.0000000001
44
0.0000000001
40
0
40
0
40
0
40
1
40
1
40
1
10
27.19208225607872
20
152.70818284091777
30
0
10
26.752199679613113
20
152.56155541477031
30
0
10
26.019061654806137
20
152.56155541477031
30
0
0
SPLINE
5
102
100
AcDbEntity
8
INTERIOR_PROFILES
100
AcDbSpline
70
0
71
2
72
6
73
3
74
0
42
0.000000001
43
0.0000000001
44
0.0000000001
40
0
40
0
40
0
40
1
40
1
40
1
10
28.511730581522023
20
153.00143769321269
30
0
10
27.998533993959462
20
153.00143769321269
30
0
10
27.19208225607872
20
152.70818284091777
30
0
0
SPLINE
5
103
100
AcDbEntity
8
INTERIOR_PROFILES
100
AcDbSpline
70
0
71
2
72
6
73
3
74
0
42
0.000000001
43
0.0000000001
44
0.0000000001
40
0
40
0
40
0
40
1
40
1
40
1
10
29.758064299821854
20
149.26243832645244
30
0
10
29.758064299821889
20
153.00143769321269
30
0
10
28.511730581522023
20
153.00143769321269
30
0
0
LINE
5
104
100
AcDbEntity
8
INTERIOR_PROFILES
100
AcDbLine
10
29.758064299821854
20
149.26243832645244
30
0
11
29.758064299821889
21
115.83135178623027
31
0
0
SPLINE
5
105
100
AcDbEntity
8
INTERIOR_PROFILES
100
AcDbSpline
70
0
71
2
72
6
73
3
74
0
42
0.000000001
43
0.0000000001
44
0.0000000001
40
0
40
0
40
0
40
1
40
1
40
1
10
33.936950713396072
20
111.57915165958232
30
0
10
29.758064299821854
20
111.57915165958232
30
0
10
29.758064299821889
20
115.83135178623027
30
0
0
SPLINE
5
106
100
AcDbEntity
8
INTERIOR_PROFILES
100
AcDbSpline
70
0
71
2
72
6
73
3
74
0
42
0.000000001
43
0.0000000001
44
0.0000000001
40
0
40
0
40
0
40
1
40
1
40
1
10
37.969209104776382
20
114.95158722934551
30
0
10
37.969209104776382
20
111.57915165958232
30
0
10
33.936950713396072
20
111.57915165958232
30
0
0
SPLINE
5
107
100
AcDbEntity
8
INTERIOR_PROFILES
100
AcDbSpline
70
0
71
2
72
6
73
3
74
0
42
0.000000001
43
0.0000000001
44
0.0000000001
40
0
40
0
40
0
40
1
40
1
40
1
10
37.822581678628922
20
116.78443005618877
30
0
10
37.969209104776418
20
115.61141064700908
30
0
10
37.969209104776382
20
114.95158722934551
30
0
0
SPLINE
5
108
100
AcDbEntity
8
INTERIOR_PROFILES
100
AcDbSpline
70
0
71
2
72
6
73
3
74
0
42
0.000000001
43
0.0000000001
44
0.0000000001
40
0.17892510929894592
40
0.17892510929894592
40
0.17892510929894592
40
1
40
1
40
1
10
47.051019507437189
20
111.10709013784087
30
0
10
41.374151503006786
20
111.9687383098963
30
0
10
37.822581678628922
20
116.78443005618877
30
0
0
LINE
5
109
100
AcDbEntity
8
INTERIOR_PROFILES
100
AcDbLine
10
47.051019507437189
20
111.10709013784087
30
0
11
47.051019507437211
21
120.2704357718228
31
0
0
SPLINE
5
110
100
AcDbEntity
8
INTERIOR_PROFILES
100
AcDbSpline
70
0
71
2
72
6
73
3
74
0
42
0.000000001
43
0.0000000001
44
0.0000000001
40
0
40
0
40
0
40
0.93759559023829497
40
0.93759559023829497
40
0.93759559023829497
10
41.121701151132584
20
130.56742241916484
30
0
10
41.121701151132584
20
120.87526889200504
30
0
10
47.051019507437211
20
120.2704357718228
30
0
0
SPLINE
5
111
100
AcDbEntity
8
INTERIOR_PROFILES
100
AcDbSpline
70
0
71
2
72
6
73
3
74
0
42
0.000000001
43
0.0000000001
44
0.0000000001
40
0
40
0
40
0
40
1
40
1
40
1
10
43.027860075235367
20
137.82548478183574
30
0
10
41.121701151132619
20
134.96624997196025
30
0
10
41.121701151132584
20
130.56742241916484
30
0
0
SPLINE
5
112
100
AcDbEntity
8
INTERIOR_PROFILES
100
AcDbSpline
70
0
71
2
72
6
73
3
74
0
42
0.000000001
43
0.0000000001
44
0.0000000001
40
0.16468055648306576
40
0.16468055648306576
40
0.16468055648306576
40
1
40
1
40
1
10
47.051019507437239
20
140.67850814964561
30
0
10
44.681352056978682
20
140.27510356522558
30
0
10
43.027860075235367
20
137.82548478183574
30
0
0
LINE
5
113
100
AcDbEntity
8
INTERIOR_PROFILES
100
AcDbLine
10
47.051019507437239
20
140.67850814964561
30
0
11
47.051019507437218
21
149.25703956841039
31
0
0
SPLINE
5
114
100
AcDbEntity
8
INTERIOR_PROFILES
100
AcDbSpline
70
0
71
2
72
6
73
3
74
0
42
0.000000001
43
0.0000000001
44
0.0000000001
40
0
40
0
40
0
40
0.59645734081339497
40
0.59645734081339497
40
0.59645734081339497
10
40.975073724985158
20
145.08355191287822
30
0
10
43.817430643612887
20
148.05709007234594
30
0
10
47.051019507437218
20
149.25703956841039
30
0
0
LINE
5
115
100
AcDbEntity
8
INTERIOR_PROFILES
100
AcDbLine
10
40.975073724985158
20
145.08355191287822
30
0
11
40.975073724985158
21
158.93985322055644
31
0
0
SPLINE
5
116
100
AcDbEntity
8
INTERIOR_PROFILES
100
AcDbSpline
70
0
71
2
72
6
73
3
74
0
42
0.000000001
43
0.0000000001
44
0.0000000001
40
0
40
0
40
0
40
1
40
1
40
1
10
38.92228856682781
20
161.50583794650859
30
0
10
40.975073724985158
20
161.50583794650859
30
0
10
40.975073724985158
20
158.93985322055644
30
0
0
SPLINE
5
117
100
AcDbEntity
8
INTERIOR_PROFILES
100
AcDbSpline
70
0
71
2
72
6
73
3
74
0
42
0.000000001
43
0.0000000001
44
0.0000000001
40
0
40
0
40
0
40
1
40
1
40
1
10
36.429618746042287
20
161.2858968072874
30
0
10
38.115836530923879
20
161.50583794650859
30
0
10
38.92228856682781
20
161.50583794650859
30
0
0
SPLINE
5
118
100
AcDbEntity
8
INTERIOR_PROFILES
100
AcDbSpline
70
0
71
2
72
6
73
3
74
0
42
0.000000001
43
0.0000000001
44
0.0000000001
40
0
40
0
40
0
40
1
40
1
40
1
10
32.543988376855886
20
161.06595566806621
30
0
10
34.743402153253591
20
161.06595566806621
30
0
10
36.429618746042287
20
161.2858968072874
30
0
0
SPLINE
5
119
100
AcDbEntity
8
INTERIOR_PROFILES
100
AcDbSpline
70
0
71
2
72
6
73
3
74
0
42
0.000000001
43
0.0000000001
44
0.0000000001
40
0
40
0
40
0
40
1
40
1
40
1
10
29.758064299821889
20
161.2858968072874
30
0
10
31.590909510850942
20
161.06595566806621
30
0
10
32.543988376855886
20
161.06595566806621
30
0
0
SPLINE
5
120
100
AcDbEntity
8
INTERIOR_PROFILES
100
AcDbSpline
70
0
71
2
72
6
73
3
74
0
42
0.000000001
43
0.0000000001
44
0.0000000001
40
0
40
0
40
0
40
1
40
1
40
1
10
26.97214081883434
20
161.50583794650859
30
0
10
27.925220280885732
20
161.50583794650859
30
0
10
29.758064299821889
20
161.2858968072874
30
0
0
SPLINE
5
121
100
AcDbEntity
8
INTERIOR_PROFILES
100
AcDbSpline
70
0
71
2
72
6
73
3
74
0
42
0.000000001
43
0.0000000001
44
0.0000000001
40
0
40
0
40
0
40
1
40
1
40
1
10
23.746334239840508
20
160.11287739810771
30
0
10
24.919354841113126
20
161.50583794650859
30
0
10
26.97214081883434
20
161.50583794650859
30
0
0
SPLINE
5
122
100
AcDbEntity
8
INTERIOR_PROFILES
100
AcDbSpline
70
0
71
2
72
6
73
3
74
0
42
0.000000001
43
0.0000000001
44
0.0000000001
40
0
40
0
40
0
40
1
40
1
40
1
10
22.499999850988424
20
156.59381440219707
30
0
10
22.499999850988424
20
158.79322579440898
30
0
10
23.746334239840508
20
160.11287739810771
30
0
0
SPLINE
5
123
100
AcDbEntity
8
INTERIOR_PROFILES
100
AcDbSpline
70
0
71
2
72
6
73
3
74
0
42
0.000000001
43
0.0000000001
44
0.0000000001
40
0
40
0
40
0
40
1
40
1
40
1
10
26.019061654806137
20
152.56155541477031
30
0
10
22.499999850988388
20
152.56155541477031
30
0
10
22.499999850988424
20
156.59381440219707
30
0
0
SPLINE
5
124
100
AcDbEntity
8
INTERIOR_PROFILES
100
AcDbSpline
70
0
71
2
72
6
73
3
74
0
42
0.000000001
43
0.0000000001
44
0.0000000001
40
0
40
0
40
0
40
1
40
1
40
1
10
155.58505383133888
20
120.89000275668926
30
0
10
155.51173534989357
20
120.89000275668926
30
0
10
157.41789188981056
20
120.45012047824687
30
0
0
SPLINE
5
125
100
AcDbEntity
8
INTERIOR_PROFILES
100
AcDbSpline
70
0
71
2
72
6
73
3
74
0
42
0.000000001
43
0.0000000001
44
0.0000000001
40
0.46823766851740217
40
0.46823766851740217
40
0.46823766851740217
40
1
40
1
40
1
10
152.78029319355949
20
119.70833412620547
30
0
10
153.67476321700559
20
120.89000275668926
30
0
10
155.58505383133888
20
120.89000275668926
30
0
0
LINE
5
126
100
AcDbEntity
8
INTERIOR_PROFILES
100
AcDbLine
10
152.78029319355949
20
119.70833412620547
30
0
11
152.85382752795346
21
119.66587905844844
31
0
0
LINE
5
127
100
AcDbEntity
8
INTERIOR_PROFILES
100
AcDbLine
10
152.85382752795346
20
119.66587905844844
30
0
11
152.85382752795346
21
113.68310360897124
31
0
0
SPLINE
5
128
100
AcDbEntity
8
INTERIOR_PROFILES
100
AcDbSpline
70
0
71
2
72
6
73
3
74
0
42
0.000000001
43
0.0000000001
44
0.0000000001
40
0
40
0
40
0
40
0.16876605989315516
40
0.16876605989315516
40
0.16876605989315516
10
153.23900547623634
20
113.19205334720439
30
0
10
153.02866755061859
20
113.42713781054462
30
0
10
152.85382752795346
20
113.68310360897121
30
0
0
SPLINE
5
129
100
AcDbEntity
8
INTERIOR_PROFILES
100
AcDbSpline
70
0
71
2
72
6
73
3
74
0
42
0.000000001
43
0.0000000001
44
0.0000000001
40
0
40
0
40
0
40
1
40
1
40
1
10
156.46481838822365
20
111.87240651187724
30
0
10
154.48534336686134
20
111.87240651187724
30
0
10
153.23900547623634
20
113.19205334720439
30
0
0
SPLINE
5
130
100
AcDbEntity
8
INTERIOR_PROFILES
100
AcDbSpline
70
0
71
2
72
6
73
3
74
0
42
0.000000001
43
0.0000000001
44
0.0000000001
40
0
40
0
40
0
40
1
40
1
40
1
10
159.83724918961528
20
112.23897984561748
30
0
10
157.34458294510841
20
111.87240651187724
30
0
10
156.46481838822365
20
111.87240651187724
30
0
0
SPLINE
5
131
100
AcDbEntity
8
INTERIOR_PROFILES
100
AcDbSpline
70
0
71
2
72
6
73
3
74
0
42
0.000000001
43
0.0000000001
44
0.0000000001
40
0
40
0
40
0
40
1
40
1
40
1
10
163.64956226944926
20
112.45891621646709
30
0
10
161.3768419325352
20
112.45891621646709
30
0
10
159.83724918961528
20
112.23897984561748
30
0
0
SPLINE
5
132
100
AcDbEntity
8
INTERIOR_PROFILES
100
AcDbSpline
70
0
71
2
72
6
73
3
74
0
42
0.000000001
43
0.0000000001
44
0.0000000001
40
0
40
0
40
0
40
1
40
1
40
1
10
169.8812421858311
20
112.16566136417217
30
0
10
167.75513973832133
20
112.45891621646709
30
0
10
163.64956226944926
20
112.45891621646709
30
0
0
SPLINE
5
133
100
AcDbEntity
8
INTERIOR_PROFILES
100
AcDbSpline
70
0
71
2
72
6
73
3
74
0
42
0.000000001
43
0.0000000001
44
0.0000000001
40
0
40
0
40
0
40
1
40
1
40
1
10
173.03372707962993
20
111.87240651187724
30
0
10
172.0073350965977
20
111.87240651187724
30
0
10
169.8812421858311
20
112.16566136417217
30
0
0
SPLINE
5
134
100
AcDbEntity
8
INTERIOR_PROFILES
100
AcDbSpline
70
0
71
2
72
6
73
3
74
0
42
0.000000001
43
0.0000000001
44
0.0000000001
40
0
40
0
40
0
40
1
40
1
40
1
10
177.21261349320415
20
117.07768490848369
30
0
10
177.21261349320415
20
111.87240651187724
30
0
10
173.03372707962993
20
111.87240651187724
30
0
0
SPLINE
5
135
100
AcDbEntity
8
INTERIOR_PROFILES
100
AcDbSpline
70
0
71
2
72
6
73
3
74
0
42
0.000000001
43
0.0000000001
44
0.0000000001
40
0
40
0
40
0
40
1
40
1
40
1
10
174.20674648880961
20
120.59674790439433
30
0
10
177.21261349320415
20
120.59674790439433
30
0
10
177.21261349320415
20
117.07768490848369
30
0
0
SPLINE
5
136
100
AcDbEntity
8
INTERIOR_PROFILES
100
AcDbSpline
70
0
71
2
72
6
73
3
74
0
42
0.000000001
43
0.0000000001
44
0.0000000001
40
0
40
0
40
0
40
1
40
1
40
1
10
172.88709965348247
20
120.37680676517314
30
0
10
173.69355526566508
20
120.59674790439433
30
0
10
174.20674648880961
20
120.59674790439433
30
0
0
SPLINE
5
137
100
AcDbEntity
8
INTERIOR_PROFILES
100
AcDbSpline
70
0
71
2
72
6
73
3
74
0
42
0.000000001
43
0.0000000001
44
0.0000000001
40
0
40
0
40
0
40
1
40
1
40
1
10
171.64077129960063
20
120.15686085758037
30
0
10
172.08065357804301
20
120.15686085758037
30
0
10
172.88709965348247
20
120.37680676517314
30
0
0
SPLINE
5
138
100
AcDbEntity
8
INTERIOR_PROFILES
100
AcDbSpline
70
0
71
2
72
6
73
3
74
0
42
0.000000001
43
0.0000000001
44
0.0000000001
40
0
40
0
40
0
40
1
40
1
40
1
10
170.46775189042094
20
122.94278672275371
30
0
10
170.46775189042094
20
120.15686085758037
30
0
10
171.64077129960063
20
120.15686085758037
30
0
0
LINE
5
139
100
AcDbEntity
8
INTERIOR_PROFILES
100
AcDbLine
10
170.46775189042094
20
122.94278672275371
30
0
11
170.46775189042094
21
124.4090657525999
31
0
0
LINE
5
140
100
AcDbEntity
8
INTERIOR_PROFILES
100
AcDbLine
10
170.46775189042094
20
124.4090657525999
30
0
11
173.10704556107524
21
126.82841828403301
31
0
0
SPLINE
5
141
100
AcDbEntity
8
INTERIOR_PROFILES
100
AcDbSpline
70
0
71
2
72
6
73
3
74
0
42
0.000000001
43
0.0000000001
44
0.0000000001
40
0
40
0
40
0
40
1
40
1
40
1
10
175.3797658979893
20
128.22137883243389
30
0
10
174.64663830399516
20
128.22137883243389
30
0
10
173.10704556107524
20
126.82841828403301
30
0
0
SPLINE
5
142
100
AcDbEntity
8
INTERIOR_PROFILES
100
AcDbSpline
70
0
71
2
72
6
73
3
74
0
42
0.000000001
43
0.0000000001
44
0.0000000001
40
0
40
0
40
0
40
1
40
1
40
1
10
177.06598606705668
20
126.31522229251689
30
0
10
175.67302075028422
20
128.22137883243389
30
0
10
175.3797658979893
20
128.22137883243389
30
0
0
LINE
5
143
100
AcDbEntity
8
INTERIOR_PROFILES
100
AcDbLine
10
177.06598606705668
20
126.31522229251689
30
0
11
179.48534336686137
21
122.94278672275371
31
0
0
SPLINE
5
144
100
AcDbEntity
8
INTERIOR_PROFILES
100
AcDbSpline
70
0
71
2
72
6
73
3
74
0
42
0.000000001
43
0.0000000001
44
0.0000000001
40
0
40
0
40
0
40
1
40
1
40
1
10
181.09824505448344
20
119.7902970605833
30
0
10
181.09824505448344
20
120.67006161746806
30
0
10
179.48534336686137
20
122.94278672275371
30
0
0
SPLINE
5
145
100
AcDbEntity
8
INTERIOR_PROFILES
100
AcDbSpline
70
0
71
2
72
6
73
3
74
0
42
0.000000001
43
0.0000000001
44
0.0000000001
40
0
40
0
40
0
40
1
40
1
40
1
10
180.58505383133891
20
118.39733174381084
30
0
10
181.09824505448344
20
119.13046887454814
30
0
10
181.09824505448344
20
119.7902970605833
30
0
0
SPLINE
5
146
100
AcDbEntity
8
INTERIOR_PROFILES
100
AcDbSpline
70
0
71
2
72
6
73
3
74
0
42
0.000000001
43
0.0000000001
44
0.0000000001
40
0
40
0
40
0
40
1
40
1
40
1
10
179.70528927445415
20
115.83135178623027
30
0
10
179.70528927445415
20
116.71111634311504
30
0
10
180.58505383133891
20
118.39733174381084
30
0
0
SPLINE
5
147
100
AcDbEntity
8
INTERIOR_PROFILES
100
AcDbSpline
70
0
71
2
72
6
73
3
74
0
42
0.000000001
43
0.0000000001
44
0.0000000001
40
0
40
0
40
0
40
1
40
1
40
1
10
180.80499020218852
20
113.04542592105693
30
0
10
179.70528927445415
20
114.21844533023662
30
0
10
179.70528927445415
20
115.83135178623027
30
0
0
SPLINE
5
148
100
AcDbEntity
8
INTERIOR_PROFILES
100
AcDbSpline
70
0
71
2
72
6
73
3
74
0
42
0.000000001
43
0.0000000001
44
0.0000000001
40
0
40
0
40
0
40
1
40
1
40
1
10
183.37097492814067
20
111.87240651187724
30
0
10
181.90470066666606
20
111.87240651187724
30
0
10
180.80499020218852
20
113.04542592105693
30
0
0
SPLINE
5
149
100
AcDbEntity
8
INTERIOR_PROFILES
100
AcDbSpline
70
0
71
2
72
6
73
3
74
0
42
0.000000001
43
0.0000000001
44
0.0000000001
40
0
40
0
40
0
40
1
40
1
40
1
10
186.15689602494243
20
112.16566136417217
30
0
10
184.25073948502543
20
111.87240651187724
30
0
10
183.37097492814067
20
111.87240651187724
30
0
0
SPLINE
5
150
100
AcDbEntity
8
INTERIOR_PROFILES
100
AcDbSpline
70
0
71
2
72
6
73
3
74
0
42
0.000000001
43
0.0000000001
44
0.0000000001
40
0
40
0
40
0
40
1
40
1
40
1
10
190.04252758622172
20
112.45891621646709
30
0
10
188.06306210160258
20
112.45891621646709
30
0
10
186.15689602494243
20
112.16566136417217
30
0
0
SPLINE
5
151
100
AcDbEntity
8
INTERIOR_PROFILES
100
AcDbSpline
70
0
71
2
72
6
73
3
74
0
42
0.000000001
43
0.0000000001
44
0.0000000001
40
0
40
0
40
0
40
1
40
1
40
1
10
193.56158581376079
20
112.16566136417217
30
0
10
191.21554699540141
20
112.45891621646709
30
0
10
190.04252758622172
20
112.45891621646709
30
0
0
SPLINE
5
152
100
AcDbEntity
8
INTERIOR_PROFILES
100
AcDbSpline
70
0
71
2
72
6
73
3
74
0
42
0.000000001
43
0.0000000001
44
0.0000000001
40
0
40
0
40
0
40
1
40
1
40
1
10
197.08064404129985
20
111.87240651187724
30
0
10
195.90762463212016
20
111.87240651187724
30
0
10
193.56158581376079
20
112.16566136417217
30
0
0
SPLINE
5
153
100
AcDbEntity
8
INTERIOR_PROFILES
100
AcDbSpline
70
0
71
2
72
6
73
3
74
0
42
0.000000001
43
0.0000000001
44
0.0000000001
40
0
40
0
40
0
40
1
40
1
40
1
10
201.40616741776469
20
116.49117520389385
30
0
10
201.40616741776469
20
111.87240651187724
30
0
10
197.08064404129985
20
111.87240651187724
30
0
0
SPLINE
5
154
100
AcDbEntity
8
INTERIOR_PROFILES
100
AcDbSpline
70
0
71
2
72
6
73
3
74
0
42
0.000000001
43
0.0000000001
44
0.0000000001
40
0
40
0
40
0
40
1
40
1
40
1
10
198.10704556107524
20
120.67006161746806
30
0
10
201.40616741776469
20
120.67006161746806
30
0
10
201.40616741776469
20
116.49117520389385
30
0
0
ARC
5
155
100
AcDbEntity
8
INTERIOR_PROFILES
100
AcDbCircle
10
-198.24822554651675
20
114.18323679938209
30
0
40
6.4883609647449161
210
0
220
0
230
-1
100
AcDbArc
50
74.986639938634738
51
88.753205040298994
0
SPLINE
5
156
100
AcDbEntity
8
INTERIOR_PROFILES
100
AcDbSpline
70
0
71
2
72
6
73
3
74
0
42
0.000000001
43
0.0000000001
44
0.0000000001
40
0
40
0
40
0
40
1
40
1
40
1
10
195.39443340897563
20
120.23017933902568
30
0
10
195.83432522416118
20
120.23017933902568
30
0
10
196.56745281815532
20
120.45012047824687
30
0
0
SPLINE
5
157
100
AcDbEntity
8
INTERIOR_PROFILES
100
AcDbSpline
70
0
71
2
72
6
73
3
74
0
42
0.000000001
43
0.0000000001
44
0.0000000001
40
0
40
0
40
0
40
1
40
1
40
1
10
191.65543881058696
20
123.96917870578594
30
0
10
194.00147762894633
20
120.23017933902568
30
0
10
195.39443340897563
20
120.23017933902568
30
0
0
LINE
5
158
100
AcDbEntity
8
INTERIOR_PROFILES
100
AcDbLine
10
191.65543881058696
20
123.96917870578594
30
0
11
185.93695965409282
21
132.98677495059795
31
0
0
LINE
5
159
100
AcDbEntity
8
INTERIOR_PROFILES
100
AcDbLine
10
185.93695965409282
20
132.98677495059795
30
0
11
185.27713146805766
21
133.93985798892803
31
0
0
SPLINE
5
160
100
AcDbEntity
8
INTERIOR_PROFILES
100
AcDbSpline
70
0
71
2
72
6
73
3
74
0
42
0.000000001
43
0.0000000001
44
0.0000000001
40
0
40
0
40
0
40
1
40
1
40
1
10
184.98387661576274
20
134.74630406436748
30
0
10
184.98387661576274
20
134.37974026737041
30
0
10
185.27713146805766
20
133.93985798892803
30
0
0
SPLINE
5
161
100
AcDbEntity
8
INTERIOR_PROFILES
100
AcDbSpline
70
0
71
2
72
6
73
3
74
0
42
0.000000001
43
0.0000000001
44
0.0000000001
40
0.21810905018023455
40
0.21810905018023455
40
0.21810905018023455
40
1
40
1
40
1
10
186.14921783712668
20
136.36598657410647
30
0
10
184.98387661576274
20
135.37686440896442
30
0
10
184.98387661576274
20
134.74630406436748
30
0
0
LINE
5
162
100
AcDbEntity
8
INTERIOR_PROFILES
100
AcDbLine
10
186.14921783712668
20
136.36598657410647
30
0
11
186.14921783712668
21
136.65575203952642
31
0
0
LINE
5
163
100
AcDbEntity
8
INTERIOR_PROFILES
100
AcDbLine
10
186.14921783712668
20
136.65575203952642
30
0
11
187.74696086667046
21
137.57820940772933
31
0
0
LINE
5
164
100
AcDbEntity
8
INTERIOR_PROFILES
100
AcDbLine
10
187.74696086667046
20
137.57820940772933
30
0
11
189.96920910477641
21
139.21844533023662
31
0
0
SPLINE
5
165
100
AcDbEntity
8
INTERIOR_PROFILES
100
AcDbSpline
70
0
71
2
72
6
73
3
74
0
42
0.000000001
43
0.0000000001
44
0.0000000001
40
0
40
0
40
0
40
1
40
1
40
1
10
193.19501248002055
20
140.83134701785869
30
0
10
192.16863003373149
20
140.83134701785872
30
0
10
189.96920910477641
20
139.21844533023662
30
0
0
SPLINE
5
166
100
AcDbEntity
8
INTERIOR_PROFILES
100
AcDbSpline
70
0
71
2
72
6
73
3
74
0
42
0.000000001
43
0.0000000001
44
0.0000000001
40
0
40
0
40
0
40
1
40
1
40
1
10
194.66130581498149
20
140.61141064700908
30
0
10
193.70822277665141
20
140.83134701785869
30
0
10
193.19501248002055
20
140.83134701785869
30
0
0
SPLINE
5
167
100
AcDbEntity
8
INTERIOR_PROFILES
100
AcDbSpline
70
0
71
2
72
6
73
3
74
0
42
0.000000001
43
0.0000000001
44
0.0000000001
40
0
40
0
40
0
40
1
40
1
40
1
10
196.2741979658604
20
140.39146473941631
30
0
10
195.61436977982524
20
140.39146473941631
30
0
10
194.66130581498149
20
140.61141064700908
30
0
0
SPLINE
5
168
100
AcDbEntity
8
INTERIOR_PROFILES
100
AcDbSpline
70
0
71
2
72
6
73
3
74
0
42
0.000000001
43
0.0000000001
44
0.0000000001
40
0
40
0
40
0
40
1
40
1
40
1
10
199.64663830399516
20
144.64366963443584
30
0
10
199.64663830399516
20
140.39146473941631
30
0
10
196.2741979658604
20
140.39146473941631
30
0
0
SPLINE
5
169
100
AcDbEntity
8
INTERIOR_PROFILES
100
AcDbSpline
70
0
71
2
72
6
73
3
74
0
42
0.000000001
43
0.0000000001
44
0.0000000001
40
0
40
0
40
0
40
1
40
1
40
1
10
195.32111492753032
20
149.04249241885967
30
0
10
199.64663830399516
20
149.04249241885967
30
0
10
199.64663830399516
20
144.64366963443584
30
0
0
SPLINE
5
170
100
AcDbEntity
8
INTERIOR_PROFILES
100
AcDbSpline
70
0
71
2
72
6
73
3
74
0
42
0.000000001
43
0.0000000001
44
0.0000000001
40
0
40
0
40
0
40
1
40
1
40
1
10
192.02199307084086
20
148.74923756656474
30
0
10
195.17449703812602
20
149.04249241885967
30
0
10
195.32111492753032
20
149.04249241885967
30
0
0
SPLINE
5
171
100
AcDbEntity
8
INTERIOR_PROFILES
100
AcDbSpline
70
0
71
2
72
6
73
3
74
0
42
0.000000001
43
0.0000000001
44
0.0000000001
40
0
40
0
40
0
40
1
40
1
40
1
10
186.74340572953227
20
148.45598271426982
30
0
10
188.86950817704204
20
148.45598271426982
30
0
10
192.02199307084086
20
148.74923756656474
30
0
0
SPLINE
5
172
100
AcDbEntity
8
INTERIOR_PROFILES
100
AcDbSpline
70
0
71
2
72
6
73
3
74
0
42
0.000000001
43
0.0000000001
44
0.0000000001
40
0
40
0
40
0
40
1
40
1
40
1
10
182.63783779740336
20
148.74923756656474
30
0
10
185.35044994950297
20
148.45598271426982
30
0
10
186.74340572953227
20
148.45598271426982
30
0
0
SPLINE
5
173
100
AcDbEntity
8
INTERIOR_PROFILES
100
AcDbSpline
70
0
71
2
72
6
73
3
74
0
42
0.000000001
43
0.0000000001
44
0.0000000001
40
0
40
0
40
0
40
1
40
1
40
1
10
178.60557880997661
20
149.04249241885967
30
0
10
179.92522564530375
20
149.04249241885967
30
0
10
182.63783779740336
20
148.74923756656474
30
0
0
SPLINE
5
174
100
AcDbEntity
8
INTERIOR_PROFILES
100
AcDbSpline
70
0
71
2
72
6
73
3
74
0
42
0.000000001
43
0.0000000001
44
0.0000000001
40
0
40
0
40
0
40
1
40
1
40
1
10
174.79325619339946
20
145.67006161746806
30
0
10
174.79325619339946
20
149.04249241885967
30
0
10
178.60557880997661
20
149.04249241885967
30
0
0
SPLINE
5
175
100
AcDbEntity
8
INTERIOR_PROFILES
100
AcDbSpline
70
0
71
2
72
6
73
3
74
0
42
0.000000001
43
0.0000000001
44
0.0000000001
40
0
40
0
40
0
40
1
40
1
40
1
10
175.74633923172954
20
143.17739060458965
30
0
10
174.79325619339946
20
144.05715992984599
30
0
10
174.79325619339946
20
145.67006161746806
30
0
0
LINE
5
176
100
AcDbEntity
8
INTERIOR_PROFILES
100
AcDbLine
10
175.74633923172954
20
143.17739060458965
30
0
11
176.91935864090922
21
142.07768490848369
31
0
0
SPLINE
5
177
100
AcDbEntity
8
INTERIOR_PROFILES
100
AcDbSpline
70
0
71
2
72
6
73
3
74
0
42
0.000000001
43
0.0000000001
44
0.0000000001
40
0
40
0
40
0
40
1
40
1
40
1
10
177.57918682694438
20
140.90466549930403
30
0
10
177.57918682694438
20
141.49117520389387
30
0
10
176.91935864090922
20
142.07768490848369
30
0
0
SPLINE
5
178
100
AcDbEntity
8
INTERIOR_PROFILES
100
AcDbSpline
70
0
71
2
72
6
73
3
74
0
42
0.000000001
43
0.0000000001
44
0.0000000001
40
0
40
0
40
0
40
1
40
1
40
1
10
175.59971180558207
20
138.26536706027812
30
0
10
177.57918682694438
20
139.95158246097395
30
0
10
177.57918682694438
20
140.90466549930403
30
0
0
SPLINE
5
179
100
AcDbEntity
8
INTERIOR_PROFILES
100
AcDbSpline
70
0
71
2
72
6
73
3
74
0
42
0.000000001
43
0.0000000001
44
0.0000000001
40
0
40
0
40
0
40
1
40
1
40
1
10
173.91349163651469
20
136.79909279880351
30
0
10
174.35338345170024
20
137.16566136417217
30
0
10
175.59971180558207
20
138.26536706027812
30
0
0
LINE
5
180
100
AcDbEntity
8
INTERIOR_PROFILES
100
AcDbLine
10
173.91349163651469
20
136.79909279880351
30
0
11
170.46775189042094
21
133.79323056278056
31
0
0
LINE
5
181
100
AcDbEntity
8
INTERIOR_PROFILES
100
AcDbLine
10
170.46775189042094
20
133.79323056278056
30
0
11
170.46775189042094
21
158.71991208133525
31
0
0
SPLINE
5
182
100
AcDbEntity
8
INTERIOR_PROFILES
100
AcDbSpline
70
0
71
2
72
6
73
3
74
0
42
0.000000001
43
0.0000000001
44
0.0000000001
40
0.65821200208884967
40
0.65821200208884967
40
0.65821200208884967
40
1
40
1
40
1
10
170.1936887843037
20
160.2988549563193
30
0
10
170.46775189042094
20
159.67210810512174
30
0
10
170.46775189042094
20
158.71991208133525
30
0
0
LINE
5
183
100
AcDbEntity
8
INTERIOR_PROFILES
100
AcDbLine
10
170.1936887843037
20
160.2988549563193
30
0
11
168.10319265923451
21
161.50580345686876
31
0
0
SPLINE
5
184
100
AcDbEntity
8
INTERIOR_PROFILES
100
AcDbSpline
70
0
71
2
72
6
73
3
74
0
42
0.000000001
43
0.0000000001
44
0.0000000001
40
0
40
0
40
0
40
0.98747749844069377
40
0.98747749844069377
40
0.98747749844069377
10
165.70235577225688
20
161.2858968072874
30
0
10
167.3674508293085
20
161.50308373324975
30
0
10
168.10319265923451
20
161.50580345686876
30
0
0
SPLINE
5
185
100
AcDbEntity
8
INTERIOR_PROFILES
100
AcDbSpline
70
0
71
2
72
6
73
3
74
0
42
0.000000001
43
0.0000000001
44
0.0000000001
40
0
40
0
40
0
40
1
40
1
40
1
10
162.47654286026957
20
160.99264195499248
30
0
10
163.5029348433018
20
160.99264195499248
30
0
10
165.70235577225688
20
161.2858968072874
30
0
0
SPLINE
5
186
100
AcDbEntity
8
INTERIOR_PROFILES
100
AcDbSpline
70
0
71
2
72
6
73
3
74
0
42
0.000000001
43
0.0000000001
44
0.0000000001
40
0
40
0
40
0
40
1
40
1
40
1
10
158.81085720658302
20
161.35921052036113
30
0
10
161.15689602494243
20
160.99264195499248
30
0
10
162.47654286026957
20
160.99264195499248
30
0
0
SPLINE
5
187
100
AcDbEntity
8
INTERIOR_PROFILES
100
AcDbSpline
70
0
71
2
72
6
73
3
74
0
42
0.000000001
43
0.0000000001
44
0.0000000001
40
0
40
0
40
0
40
1
40
1
40
1
10
156.68475475907329
20
161.50583794650859
30
0
10
157.85777416825297
20
161.50583794650859
30
0
10
158.81085720658302
20
161.35921052036113
30
0
0
SPLINE
5
188
100
AcDbEntity
8
INTERIOR_PROFILES
100
AcDbSpline
70
0
71
2
72
6
73
3
74
0
42
0.000000001
43
0.0000000001
44
0.0000000001
40
0
40
0
40
0
40
1
40
1
40
1
10
151.99267712235454
20
156.59381440219707
30
0
10
151.99267712235454
20
161.50583794650859
30
0
10
156.68475475907329
20
161.50583794650859
30
0
0
SPLINE
5
189
100
AcDbEntity
8
INTERIOR_PROFILES
100
AcDbSpline
70
0
71
2
72
6
73
3
74
0
42
0.000000001
43
0.0000000001
44
0.0000000001
40
0
40
0
40
0
40
1
40
1
40
1
10
155.51173534989357
20
152.56155541477031
30
0
10
151.99267712235451
20
152.56155541477031
30
0
10
151.99267712235454
20
156.59381440219707
30
0
0
SPLINE
5
190
100
AcDbEntity
8
INTERIOR_PROFILES
100
AcDbSpline
70
0
71
2
72
6
73
3
74
0
42
0.000000001
43
0.0000000001
44
0.0000000001
40
0
40
0
40
0
40
1
40
1
40
1
10
156.68475475907326
20
152.70818284091777
30
0
10
156.24487248063087
20
152.56155541477031
30
0
10
155.51173534989357
20
152.56155541477031
30
0
0
SPLINE
5
191
100
AcDbEntity
8
INTERIOR_PROFILES
100
AcDbSpline
70
0
71
2
72
6
73
3
74
0
42
0.000000001
43
0.0000000001
44
0.0000000001
40
0
40
0
40
0
40
1
40
1
40
1
10
158.00440159440041
20
153.00143769321269
30
0
10
157.49121037125587
20
153.00143769321269
30
0
10
156.68475475907326
20
152.70818284091777
30
0
0
SPLINE
5
192
100
AcDbEntity
8
INTERIOR_PROFILES
100
AcDbSpline
70
0
71
2
72
6
73
3
74
0
42
0.000000001
43
0.0000000001
44
0.0000000001
40
0
40
0
40
0
40
1
40
1
40
1
10
159.25073948502543
20
148.89586499271221
30
0
10
159.25073948502541
20
153.00143769321269
30
0
10
158.00440159440041
20
153.00143769321269
30
0
0
LINE
5
193
100
AcDbEntity
8
INTERIOR_PROFILES
100
AcDbLine
10
159.25073948502543
20
148.89586499271221
30
0
11
159.25073948502543
21
124.48237469730205
31
0
0
SPLINE
5
194
100
AcDbEntity
8
INTERIOR_PROFILES
100
AcDbSpline
70
0
71
2
72
6
73
3
74
0
42
0.000000001
43
0.0000000001
44
0.0000000001
40
0
40
0
40
0
40
1
40
1
40
1
10
157.93109264969826
20
120.37680676517314
30
0
10
159.25073948502541
20
120.37680676517314
30
0
10
159.25073948502543
20
124.48237469730205
30
0
0
SPLINE
5
195
100
AcDbEntity
8
INTERIOR_PROFILES
100
AcDbSpline
70
0
71
2
72
6
73
3
74
0
42
0.000000001
43
0.0000000001
44
0.0000000001
40
0
40
0
40
0
40
1
40
1
40
1
10
157.41789188981056
20
120.45012047824687
30
0
10
157.71114674210548
20
120.37680676517314
30
0
10
157.93109264969826
20
120.37680676517314
30
0
0
LINE
5
196
100
AcDbEntity
8
INTERIOR_PROFILES
100
AcDbLine
10
276.34164199233055
20
42.737515478704665
30
0
11
279.21776738102579
21
42.921102184486571
31
0
0
LINE
5
197
100
AcDbEntity
8
INTERIOR_PROFILES
100
AcDbLine
10
279.21776738102579
20
42.921102184486571
30
0
11
279.21776738102579
21
55.088563533271625
31
0
0
LINE
5
198
100
AcDbEntity
8
INTERIOR_PROFILES
100
AcDbLine
10
279.21776738102579
20
55.088563533271625
30
0
11
275.38855895400047
21
67.297633200262283
31
0
0
SPLINE
5
199
100
AcDbEntity
8
INTERIOR_PROFILES
100
AcDbSpline
70
0
71
2
72
6
73
3
74
0
42
0.000000001
43
0.0000000001
44
0.0000000001
40
0
40
0
40
0
40
1
40
1
40
1
10
274.65542182326317
20
70.010245352361878
30
0
10
274.65542182326323
20
69.643672018621643
30
0
10
275.38855895400047
20
67.297633200262283
30
0
0
SPLINE
5
200
100
AcDbEntity
8
INTERIOR_PROFILES
100
AcDbSpline
70
0
71
2
72
6
73
3
74
0
42
0.000000001
43
0.0000000001
44
0.0000000001
40
0
40
0
40
0
40
1
40
1
40
1
10
276.4882598817349
20
71.476519613836501
30
0
10
274.65542182326317
20
71.256573706243714
30
0
10
274.65542182326317
20
70.010245352361878
30
0
0
SPLINE
5
201
100
AcDbEntity
8
INTERIOR_PROFILES
100
AcDbSpline
70
0
71
2
72
6
73
3
74
0
42
0.000000001
43
0.0000000001
44
0.0000000001
40
0
40
0
40
0
40
1
40
1
40
1
10
279.42081794142729
20
75.582087545965408
30
0
10
279.42081794142723
20
71.769774466131423
30
0
10
276.4882598817349
20
71.476519613836501
30
0
0
SPLINE
5
202
100
AcDbEntity
8
INTERIOR_PROFILES
100
AcDbSpline
70
0
71
2
72
6
73
3
74
0
42
0.000000001
43
0.0000000001
44
0.0000000001
40
0
40
0
40
0
40
1
40
1
40
1
10
275.46187743544579
20
79.760973959539626
30
0
10
279.42081794142723
20
79.760973959539626
30
0
10
279.42081794142729
20
75.582087545965408
30
0
0
SPLINE
5
203
100
AcDbEntity
8
INTERIOR_PROFILES
100
AcDbSpline
70
0
71
2
72
6
73
3
74
0
42
0.000000001
43
0.0000000001
44
0.0000000001
40
0
40
0
40
0
40
1
40
1
40
1
10
272.08943709731108
20
79.541032820318435
30
0
10
274.36216697096825
20
79.760973959539626
30
0
10
275.46187743544579
20
79.760973959539626
30
0
0
SPLINE
5
204
100
AcDbEntity
8
INTERIOR_PROFILES
100
AcDbSpline
70
0
71
2
72
6
73
3
74
0
42
0.000000001
43
0.0000000001
44
0.0000000001
40
0
40
0
40
0
40
1
40
1
40
1
10
266.81084975600243
20
79.174464254949783
30
0
10
268.35043296217918
20
79.174464254949783
30
0
10
272.08943709731108
20
79.541032820318435
30
0
0
SPLINE
5
205
100
AcDbEntity
8
INTERIOR_PROFILES
100
AcDbSpline
70
0
71
2
72
6
73
3
74
0
42
0.000000001
43
0.0000000001
44
0.0000000001
40
0
40
0
40
0
40
1
40
1
40
1
10
263.43840941786772
20
79.467719107244704
30
0
10
265.71113929152489
20
79.174464254949783
30
0
10
266.81084975600243
20
79.174464254949783
30
0
0
SPLINE
5
206
100
AcDbEntity
8
INTERIOR_PROFILES
100
AcDbSpline
70
0
71
2
72
6
73
3
74
0
42
0.000000001
43
0.0000000001
44
0.0000000001
40
0
40
0
40
0
40
1
40
1
40
1
10
260.13928756117821
20
79.760973959539626
30
0
10
261.23899802565575
20
79.760973959539626
30
0
10
263.43840941786772
20
79.467719107244704
30
0
0
SPLINE
5
207
100
AcDbEntity
8
INTERIOR_PROFILES
100
AcDbSpline
70
0
71
2
72
6
73
3
74
0
42
0.000000001
43
0.0000000001
44
0.0000000001
40
0
40
0
40
0
40
1
40
1
40
1
10
255.6671462953091
20
74.848950415228103
30
0
10
255.66714629530907
20
79.760973959539626
30
0
10
260.13928756117821
20
79.760973959539626
30
0
0
SPLINE
5
208
100
AcDbEntity
8
INTERIOR_PROFILES
100
AcDbSpline
70
0
71
2
72
6
73
3
74
0
42
0.000000001
43
0.0000000001
44
0.0000000001
40
0
40
0
40
0
40
1
40
1
40
1
10
256.62022933363914
20
71.843083410833572
30
0
10
255.66714629530907
20
73.016107588384841
30
0
10
255.6671462953091
20
74.848950415228103
30
0
0
SPLINE
5
209
100
AcDbEntity
8
INTERIOR_PROFILES
100
AcDbSpline
70
0
71
2
72
6
73
3
74
0
42
0.000000001
43
0.0000000001
44
0.0000000001
40
0
40
0
40
0
40
1
40
1
40
1
10
259.03958663344383
20
70.670064001653884
30
0
10
257.57331237196922
20
70.670064001653884
30
0
10
256.62022933363914
20
71.843083410833572
30
0
0
SPLINE
5
210
100
AcDbEntity
8
INTERIOR_PROFILES
100
AcDbSpline
70
0
71
2
72
6
73
3
74
0
42
0.000000001
43
0.0000000001
44
0.0000000001
40
0
40
0
40
0
40
1
40
1
40
1
10
260.28591498732573
20
70.816691427801331
30
0
10
259.69940528273582
20
70.670064001653884
30
0
10
259.03958663344383
20
70.670064001653884
30
0
0
SPLINE
5
211
100
AcDbEntity
8
INTERIOR_PROFILES
100
AcDbSpline
70
0
71
2
72
6
73
3
74
0
42
0.000000001
43
0.0000000001
44
0.0000000001
40
0
40
0
40
0
40
1
40
1
40
1
10
260.65248832106596
20
70.890009909246643
30
0
10
260.43254241347319
20
70.816691427801345
30
0
10
260.28591498732573
20
70.816691427801331
30
0
0
LINE
5
212
100
AcDbEntity
8
INTERIOR_PROFILES
100
AcDbLine
10
260.65248832106596
20
70.890009909246643
30
0
11
261.01906165480619
21
70.890009909246658
31
0
0
SPLINE
5
213
100
AcDbEntity
8
INTERIOR_PROFILES
100
AcDbSpline
70
0
71
2
72
6
73
3
74
0
42
0.000000001
43
0.0000000001
44
0.0000000001
40
0
40
0
40
0
40
1
40
1
40
1
10
262.11876258254051
20
70.376809149358962
30
0
10
261.7521987855435
20
70.890009909246658
30
0
10
261.01906165480619
20
70.890009909246658
30
0
0
SPLINE
5
214
100
AcDbEntity
8
INTERIOR_PROFILES
100
AcDbSpline
70
0
71
2
72
6
73
3
74
0
42
0.000000001
43
0.0000000001
44
0.0000000001
40
0
40
0
40
0
40
1
40
1
40
1
10
263.36510047316551
20
67.737515478704665
30
0
10
262.48533591628075
20
69.936926870916579
30
0
10
262.11876258254051
20
70.376809149358962
30
0
0
LINE
5
215
100
AcDbEntity
8
INTERIOR_PROFILES
100
AcDbLine
10
263.36510047316551
20
67.737515478704665
30
0
11
270.98973616957664
21
47.136338263128494
31
0
0
SPLINE
5
216
100
AcDbEntity
8
INTERIOR_PROFILES
100
AcDbSpline
70
0
71
2
72
6
73
3
74
0
42
0.000000001
43
0.0000000001
44
0.0000000001
40
0
40
0
40
0
40
1
40
1
40
1
10
276.04838714003563
20
42.737515478704665
30
0
10
272.60263785719872
20
42.737515478704665
30
0
10
270.98973616957664
20
47.136338263128494
30
0
0
LINE
5
217
100
AcDbEntity
8
INTERIOR_PROFILES
100
AcDbLine
10
276.04838714003563
20
42.737515478704665
30
0
11
276.34164199233055
21
42.737515478704665
31
0
0
SPLINE
5
218
100
AcDbEntity
8
INTERIOR_PROFILES
100
AcDbSpline
70
0
71
2
72
6
73
3
74
0
42
0.000000001
43
0.0000000001
44
0.0000000001
40
0
40
0
40
0
40
1
40
1
40
1
10
150.81378325819972
20
69.790299444769119
30
0
10
150.81378325819972
20
68.250711470220779
30
0
10
152.2067438066006
20
67.590888052557204
30
0
0
SPLINE
5
219
100
AcDbEntity
8
INTERIOR_PROFILES
100
AcDbSpline
70
0
71
2
72
6
73
3
74
0
42
0.000000001
43
0.0000000001
44
0.0000000001
40
0
40
0
40
0
40
1
40
1
40
1
10
155.06598338484767
20
72.722852736089919
30
0
10
150.81378325819972
20
72.722852736089919
30
0
10
150.81378325819972
20
69.790299444769119
30
0
0
SPLINE
5
220
100
AcDbEntity
8
INTERIOR_PROFILES
100
AcDbSpline
70
0
71
2
72
6
73
3
74
0
42
0.000000001
43
0.0000000001
44
0.0000000001
40
0
40
0
40
0
40
1
40
1
40
1
10
161.15102633833885
20
69.350417166326736
30
0
10
158.65835770964625
20
72.722852736089905
30
0
10
155.06598338484767
20
72.722852736089919
30
0
0
SPLINE
5
221
100
AcDbEntity
8
INTERIOR_PROFILES
100
AcDbSpline
70
0
71
2
72
6
73
3
74
0
42
0.000000001
43
0.0000000001
44
0.0000000001
40
0
40
0
40
0
40
1
40
1
40
1
10
165.98973616957664
20
66.564496069524964
30
0
10
163.2038126885891
20
66.564496069524978
30
0
10
161.15102633833885
20
69.350417166326736
30
0
0
SPLINE
5
222
100
AcDbEntity
8
INTERIOR_PROFILES
100
AcDbSpline
70
0
71
2
72
6
73
3
74
0
42
0.000000001
43
0.0000000001
44
0.0000000001
40
0
40
0
40
0
40
1
40
1
40
1
10
169.87536534667015
20
70.450127630804275
30
0
10
169.87536534667015
20
66.564496069524978
30
0
10
165.98973616957664
20
66.564496069524964
30
0
0
LINE
5
223
100
AcDbEntity
8
INTERIOR_PROFILES
100
AcDbLine
10
169.87536534667015
20
70.450127630804275
30
0
11
169.87536534667015
21
72.429597883794997
31
0
0
SPLINE
5
224
100
AcDbEntity
8
INTERIOR_PROFILES
100
AcDbSpline
70
0
71
2
72
6
73
3
74
0
42
0.000000001
43
0.0000000001
44
0.0000000001
40
0
40
0
40
0
40
1
40
1
40
1
10
169.80205163359642
20
73.602617292974685
30
0
10
169.80205163359645
20
73.382676153753494
30
0
10
169.87536534667015
20
72.429597883794997
30
0
0
SPLINE
5
225
100
AcDbEntity
8
INTERIOR_PROFILES
100
AcDbSpline
70
0
71
2
72
6
73
3
74
0
42
0.000000001
43
0.0000000001
44
0.0000000001
40
0
40
0
40
0
40
1
40
1
40
1
10
170.02199277281764
20
76.095288305853103
30
0
10
169.80205163359642
20
74.775641470525954
30
0
10
169.80205163359642
20
73.602617292974685
30
0
0
SPLINE
5
226
100
AcDbEntity
8
INTERIOR_PROFILES
100
AcDbSpline
70
0
71
2
72
6
73
3
74
0
42
0.000000001
43
0.0000000001
44
0.0000000001
40
0
40
0
40
0
40
1
40
1
40
1
10
170.31525000929832
20
78.074758558843826
30
0
10
170.31525000929832
20
77.19499400195906
30
0
10
170.02199277281764
20
76.095288305853103
30
0
0
SPLINE
5
227
100
AcDbEntity
8
INTERIOR_PROFILES
100
AcDbSpline
70
0
71
2
72
6
73
3
74
0
42
0.000000001
43
0.0000000001
44
0.0000000001
40
0
40
0
40
0
40
1
40
1
40
1
10
166.57624587416649
20
80.714056997869704
30
0
10
170.31525000929832
20
80.714056997869704
30
0
10
170.31525000929832
20
78.074758558843826
30
0
0
SPLINE
5
228
100
AcDbEntity
8
INTERIOR_PROFILES
100
AcDbSpline
70
0
71
2
72
6
73
3
74
0
42
0.000000001
43
0.0000000001
44
0.0000000001
40
0
40
0
40
0
40
1
40
1
40
1
10
162.61730298399925
20
77.634876280401443
30
0
10
162.91055783629417
20
80.714056997869704
30
0
10
166.57624587416649
20
80.714056997869704
30
0
0
SPLINE
5
229
100
AcDbEntity
8
INTERIOR_PROFILES
100
AcDbSpline
70
0
71
2
72
6
73
3
74
0
42
0.000000001
43
0.0000000001
44
0.0000000001
40
0
40
0
40
0
40
1
40
1
40
1
10
153.08650836348536
20
80.787365942571853
30
0
10
158.73167142271998
20
80.787365942571853
30
0
10
162.61730298399925
20
77.634876280401443
30
0
0
SPLINE
5
230
100
AcDbEntity
8
INTERIOR_PROFILES
100
AcDbSpline
70
0
71
2
72
6
73
3
74
0
42
0.000000001
43
0.0000000001
44
0.0000000001
40
0
40
0
40
0
40
1
40
1
40
1
10
143.55572089552879
20
77.341621428106521
30
0
10
147.22140654921535
20
80.787365942571853
30
0
10
153.08650836348536
20
80.787365942571853
30
0
0
SPLINE
5
231
100
AcDbEntity
8
INTERIOR_PROFILES
100
AcDbSpline
70
0
71
2
72
6
73
3
74
0
42
0.000000001
43
0.0000000001
44
0.0000000001
40
0
40
0
40
0
40
1
40
1
40
1
10
139.96334418654445
20
68.397338896368225
30
0
10
139.96334418654445
20
73.895872145269593
30
0
10
143.55572089552879
20
77.341621428106521
30
0
0
SPLINE
5
232
100
AcDbEntity
8
INTERIOR_PROFILES
100
AcDbSpline
70
0
71
2
72
6
73
3
74
0
42
0.000000001
43
0.0000000001
44
0.0000000001
40
0
40
0
40
0
40
1
40
1
40
1
10
141.20967730879786
20
62.898805647466872
30
0
10
139.96334418654445
20
65.318158178899964
30
0
10
139.96334418654445
20
68.397338896368225
30
0
0
SPLINE
5
233
100
AcDbEntity
8
INTERIOR_PROFILES
100
AcDbSpline
70
0
71
2
72
6
73
3
74
0
42
0.000000001
43
0.0000000001
44
0.0000000001
40
0
40
0
40
0
40
1
40
1
40
1
10
144.58211287856105
20
59.453056364629958
30
0
10
142.45601043105128
20
60.552762060735915
30
0
10
141.20967730879786
20
62.898805647466872
30
0
0
SPLINE
5
234
100
AcDbEntity
8
INTERIOR_PROFILES
100
AcDbSpline
70
0
71
2
72
6
73
3
74
0
42
0.000000001
43
0.0000000001
44
0.0000000001
40
0
40
0
40
0
40
1
40
1
40
1
10
151.98680266737941
20
57.25364497241803
30
0
10
146.78152427077293
20
58.353350668523987
30
0
10
144.58211287856105
20
59.453056364629958
30
0
0
LINE
5
235
100
AcDbEntity
8
INTERIOR_PROFILES
100
AcDbLine
10
151.98680266737941
20
57.25364497241803
30
0
11
156.23900279402736
21
56.373880415533279
31
0
0
SPLINE
5
236
100
AcDbEntity
8
INTERIOR_PROFILES
100
AcDbSpline
70
0
71
2
72
6
73
3
74
0
42
0.000000001
43
0.0000000001
44
0.0000000001
40
0
40
0
40
0
40
1
40
1
40
1
10
160.49120292067528
20
53.221385984991286
30
0
10
160.49120292067528
20
55.494111090276931
30
0
10
156.23900279402736
20
56.373880415533279
30
0
0
SPLINE
5
237
100
AcDbEntity
8
INTERIOR_PROFILES
100
AcDbSpline
70
0
71
2
72
6
73
3
74
0
42
0.000000001
43
0.0000000001
44
0.0000000001
40
0
40
0
40
0
40
1
40
1
40
1
10
155.21261081099513
20
49.922268896673415
30
0
10
160.49120292067528
20
49.922268896673415
30
0
10
160.49120292067528
20
53.221385984991286
30
0
0
SPLINE
5
238
100
AcDbEntity
8
INTERIOR_PROFILES
100
AcDbSpline
70
0
71
2
72
6
73
3
74
0
42
0.000000001
43
0.0000000001
44
0.0000000001
40
0
40
0
40
0
40
1
40
1
40
1
10
150.66715583205226
20
50.728714972112869
30
0
10
152.2067438066006
20
49.922268896673415
30
0
10
155.21261081099513
20
49.922268896673415
30
0
0
SPLINE
5
239
100
AcDbEntity
8
INTERIOR_PROFILES
100
AcDbSpline
70
0
71
2
72
6
73
3
74
0
42
0.000000001
43
0.0000000001
44
0.0000000001
40
0
40
0
40
0
40
1
40
1
40
1
10
147.29472026228908
20
54.321091681097244
30
0
10
149.12756308913234
20
51.608484297369216
30
0
10
150.66715583205226
20
50.728714972112869
30
0
0
SPLINE
5
240
100
AcDbEntity
8
INTERIOR_PROFILES
100
AcDbSpline
70
0
71
2
72
6
73
3
74
0
42
0.000000001
43
0.0000000001
44
0.0000000001
40
0
40
0
40
0
40
1
40
1
40
1
10
145.09530887007716
20
56.59382155475447
30
0
10
146.12170085310936
20
56.007311850164612
30
0
10
147.29472026228908
20
54.321091681097244
30
0
0
SPLINE
5
241
100
AcDbEntity
8
INTERIOR_PROFILES
100
AcDbSpline
70
0
71
2
72
6
73
3
74
0
42
0.000000001
43
0.0000000001
44
0.0000000001
40
0
40
0
40
0
40
1
40
1
40
1
10
142.08944186568263
20
57.1803312593443
30
0
10
144.06891211867335
20
57.1803312593443
30
0
10
145.09530887007716
20
56.59382155475447
30
0
0
SPLINE
5
242
100
AcDbEntity
8
INTERIOR_PROFILES
100
AcDbSpline
70
0
71
2
72
6
73
3
74
0
42
0.000000001
43
0.0000000001
44
0.0000000001
40
0
40
0
40
0
40
1
40
1
40
1
10
137.98386916518214
20
53.881209402654861
30
0
10
137.98386916518214
20
57.1803312593443
30
0
10
142.08944186568263
20
57.1803312593443
30
0
0
SPLINE
5
243
100
AcDbEntity
8
INTERIOR_PROFILES
100
AcDbSpline
70
0
71
2
72
6
73
3
74
0
42
0.000000001
43
0.0000000001
44
0.0000000001
40
0
40
0
40
0
40
1
40
1
40
1
10
138.05718287825587
20
51.901739149664124
30
0
10
137.98386916518211
20
53.221385984991286
30
0
10
137.98386916518214
20
53.881209402654861
30
0
0
SPLINE
5
244
100
AcDbEntity
8
INTERIOR_PROFILES
100
AcDbSpline
70
0
71
2
72
6
73
3
74
0
42
0.000000001
43
0.0000000001
44
0.0000000001
40
0
40
0
40
0
40
1
40
1
40
1
10
138.20381030440333
20
49.922268896673415
30
0
10
138.20381030440331
20
50.582087545965408
30
0
10
138.05718287825587
20
51.901739149664124
30
0
0
SPLINE
5
245
100
AcDbEntity
8
INTERIOR_PROFILES
100
AcDbSpline
70
0
71
2
72
6
73
3
74
0
42
0.000000001
43
0.0000000001
44
0.0000000001
40
0
40
0
40
0
40
1
40
1
40
1
10
138.05718287825587
20
47.649539023016175
30
0
10
138.20381030440333
20
49.189131765936111
30
0
10
138.20381030440333
20
49.922268896673415
30
0
0
SPLINE
5
246
100
AcDbEntity
8
INTERIOR_PROFILES
100
AcDbSpline
70
0
71
2
72
6
73
3
74
0
42
0.000000001
43
0.0000000001
44
0.0000000001
40
0
40
0
40
0
40
1
40
1
40
1
10
137.91055545210841
20
45.376809149358962
30
0
10
137.91055545210841
20
46.109946280096267
30
0
10
138.05718287825587
20
47.649539023016175
30
0
0
SPLINE
5
247
100
AcDbEntity
8
INTERIOR_PROFILES
100
AcDbSpline
70
0
71
2
72
6
73
3
74
0
42
0.000000001
43
0.0000000001
44
0.0000000001
40
0
40
0
40
0
40
1
40
1
40
1
10
141.86950072646144
20
42.151005774114822
30
0
10
137.91055545210841
20
42.151005774114822
30
0
10
137.91055545210841
20
45.376809149358962
30
0
0
SPLINE
5
248
100
AcDbEntity
8
INTERIOR_PROFILES
100
AcDbSpline
70
0
71
2
72
6
73
3
74
0
42
0.000000001
43
0.0000000001
44
0.0000000001
40
0
40
0
40
0
40
1
40
1
40
1
10
145.53519114851954
20
45.743382483099197
30
0
10
145.53519114851954
20
42.151005774114822
30
0
10
141.86950072646144
20
42.151005774114822
30
0
0
SPLINE
5
249
100
AcDbEntity
8
INTERIOR_PROFILES
100
AcDbSpline
70
0
71
2
72
6
73
3
74
0
42
0.000000001
43
0.0000000001
44
0.0000000001
40
0
40
0
40
0
40
1
40
1
40
1
10
157.26539477705958
20
41.637805014227126
30
0
10
150.81378325819972
20
41.637805014227112
30
0
10
145.53519114851954
20
45.743382483099197
30
0
0
SPLINE
5
250
100
AcDbEntity
8
INTERIOR_PROFILES
100
AcDbSpline
70
0
71
2
72
6
73
3
74
0
42
0.000000001
43
0.0000000001
44
0.0000000001
40
0
40
0
40
0
40
1
40
1
40
1
10
167.96920880675316
20
45.376809149358962
30
0
10
163.71700868010521
20
41.637805014227126
30
0
10
157.26539477705958
20
41.637805014227126
30
0
0
SPLINE
5
251
100
AcDbEntity
8
INTERIOR_PROFILES
100
AcDbSpline
70
0
71
2
72
6
73
3
74
0
42
0.000000001
43
0.0000000001
44
0.0000000001
40
0
40
0
40
0
40
1
40
1
40
1
10
172.29472026228905
20
54.687660246465896
30
0
10
172.29472026228905
20
49.115813284490798
30
0
10
167.96920880675316
20
45.376809149358962
30
0
0
SPLINE
5
252
100
AcDbEntity
8
INTERIOR_PROFILES
100
AcDbSpline
70
0
71
2
72
6
73
3
74
0
42
0.000000001
43
0.0000000001
44
0.0000000001
40
0
40
0
40
0
40
1
40
1
40
1
10
170.46187743544579
20
60.846016913030837
30
0
10
172.29472026228905
20
58.20672324237654
30
0
10
172.29472026228905
20
54.687660246465896
30
0
0
SPLINE
5
253
100
AcDbEntity
8
INTERIOR_PROFILES
100
AcDbSpline
70
0
71
2
72
6
73
3
74
0
42
0.000000001
43
0.0000000001
44
0.0000000001
40
0
40
0
40
0
40
1
40
1
40
1
10
166.64955958724022
20
63.998511343572815
30
0
10
168.99560078978539
20
62.898805647466858
30
0
10
170.46187743544579
20
60.846016913030837
30
0
0
SPLINE
5
254
100
AcDbEntity
8
INTERIOR_PROFILES
100
AcDbSpline
70
0
71
2
72
6
73
3
74
0
42
0.000000001
43
0.0000000001
44
0.0000000001
40
0
40
0
40
0
40
1
40
1
40
1
10
159.53812226653102
20
65.977986364935134
30
0
10
164.37683209776878
20
65.098221808050369
30
0
10
166.64955958724022
20
63.998511343572815
30
0
0
SPLINE
5
255
100
AcDbEntity
8
INTERIOR_PROFILES
100
AcDbSpline
70
0
71
2
72
6
73
3
74
0
42
0.000000001
43
0.0000000001
44
0.0000000001
40
0
40
0
40
0
40
1
40
1
40
1
10
152.2067438066006
20
67.590888052557204
30
0
10
153.59970435500148
20
67.004378347967346
30
0
10
159.53812226653102
20
65.977986364935134
30
0
0
LINE
5
256
100
AcDbEntity
8
INTERIOR_PROFILES
100
AcDbLine
10
162.28562429767771
20
36.695752039526226
30
0
11
161.70537868667805
21
37.030756999232992
31
0
0
SPLINE
5
257
100
AcDbEntity
8
INTERIOR_PROFILES
100
AcDbSpline
70
0
71
3
72
8
73
4
74
0
42
0.000000001
43
0.0000000001
44
0.0000000001
40
-1
40
-1
40
-1
40
-1
40
-0.71224727039691682
40
-0.71224727039691682
40
-0.71224727039691682
40
-0.71224727039691682
10
157.26539477705958
20
36.637805014227119
30
0
10
158.7809841414699
20
36.637805014227126
30
0
10
160.26449065764243
20
36.76434948716264
30
0
10
161.70537868667799
20
37.030756999232985
30
0
0
SPLINE
5
258
100
AcDbEntity
8
INTERIOR_PROFILES
100
AcDbSpline
70
0
71
3
72
8
73
4
74
0
42
0.000000001
43
0.0000000001
44
0.0000000001
40
-0.4517450351313555
40
-0.4517450351313555
40
-0.4517450351313555
40
-0.4517450351313555
40
-0
40
-0
40
-0
40
-0
10
150.18123271166502
20
37.707278298965299
30
0
10
152.45868193548898
20
36.99660560554468
30
0
10
154.84328151462972
20
36.637805014227119
30
0
10
157.26539477705958
20
36.637805014227119
30
0
0
LINE
5
259
100
AcDbEntity
8
INTERIOR_PROFILES
100
AcDbLine
10
150.18123271166502
20
37.707278298965299
30
0
11
148.42921783712669
21
36.69575203952639
31
0
0
LINE
5
260
100
AcDbEntity
8
INTERIOR_PROFILES
100
AcDbLine
10
148.42921783712669
20
36.69575203952639
30
0
11
148.42921783712657
21
28.815752039526195
31
0
0
LINE
5
261
100
AcDbEntity
8
INTERIOR_PROFILES
100
AcDbLine
10
148.42921783712657
20
28.815752039526195
30
0
11
162.28562429767763
21
28.815752039526199
31
0
0
LINE
5
262
100
AcDbEntity
8
INTERIOR_PROFILES
100
AcDbLine
10
162.28562429767763
20
28.815752039526199
30
0
11
162.28562429767771
21
36.695752039526226
31
0
0
CIRCLE
5
263
100
AcDbEntity
8
INTERIOR_PROFILES
100
AcDbCircle
10
-222.45000000000002
20
177.63575203952547
30
0
40
0.89999999999998748
210
0
220
0
230
-1
0
LWPOLYLINE
5
264
100
AcDbEntity
8
INTERIOR_PROFILES
100
AcDbPolyline
90
4
70
1
43
0.0
10
183.94999999999999
20
180.03575203952548
10
197.24999999999994
20
180.03575203952548
10
197.24999999999997
20
174.03575203952551
10
183.94999999999999
20
174.03575203952624
0
CIRCLE
5
265
100
AcDbEntity
8
INTERIOR_PROFILES
100
AcDbCircle
10
-206.45000000000005
20
177.63575203952547
30
0
40
0.89999999999998748
210
0
220
0
230
-1
0
CIRCLE
5
266
100
AcDbEntity
8
INTERIOR_PROFILES
100
AcDbCircle
10
-218.45000000000002
20
177.63575203952547
30
0
40
0.89999999999998748
210
0
220
0
230
-1
0
CIRCLE
5
267
100
AcDbEntity
8
INTERIOR_PROFILES
100
AcDbCircle
10
-239.65000000000003
20
176.13575203952536
30
0
40
2.4000000000000146
210
0
220
0
230
-1
0
SPLINE
5
268
100
AcDbEntity
8
INTERIOR_PROFILES
100
AcDbSpline
70
0
71
2
72
6
73
3
74
0
42
0.000000001
43
0.0000000001
44
0.0000000001
40
0
40
0
40
0
40
1
40
1
40
1
10
363.95160064101219
20
54.687660246465896
30
0
10
363.95160064101219
20
52.048366575811599
30
0
10
364.39149245619774
20
51.315229445074294
30
0
0
LINE
5
269
100
AcDbEntity
8
INTERIOR_PROFILES
100
AcDbLine
10
363.95160064101219
20
54.687660246465896
30
0
11
363.95160064101219
21
57.473586111639236
31
0
0
SPLINE
5
270
100
AcDbEntity
8
INTERIOR_PROFILES
100
AcDbSpline
70
0
71
2
72
6
73
3
74
0
42
0.000000001
43
0.0000000001
44
0.0000000001
40
0
40
0
40
0
40
1
40
1
40
1
10
365.2712570130825
20
67.077692061041077
30
0
10
363.95160064101219
20
62.898805647466858
30
0
10
363.95160064101219
20
57.473586111639236
30
0
0
SPLINE
5
271
100
AcDbEntity
8
INTERIOR_PROFILES
100
AcDbSpline
70
0
71
2
72
6
73
3
74
0
42
0.000000001
43
0.0000000001
44
0.0000000001
40
0
40
0
40
0
40
1
40
1
40
1
10
371.86950072646141
20
72.282970457647536
30
0
10
366.95746764540672
20
72.282970457647536
30
0
10
365.2712570130825
20
67.077692061041077
30
0
0
LINE
5
272
100
AcDbEntity
8
INTERIOR_PROFILES
100
AcDbLine
10
371.86950072646141
20
72.282970457647536
30
0
11
372.30937346816063
21
72.282970457647522
31
0
0
SPLINE
5
273
100
AcDbEntity
8
INTERIOR_PROFILES
100
AcDbSpline
70
0
71
2
72
6
73
3
74
0
42
0.000000001
43
0.0000000001
44
0.0000000001
40
0
40
0
40
0
40
1
40
1
40
1
10
371.35630950331688
20
69.423730879400466
30
0
10
371.35630950331688
20
70.450127630804275
30
0
10
372.30937346816063
20
72.282970457647522
30
0
0
SPLINE
5
274
100
AcDbEntity
8
INTERIOR_PROFILES
100
AcDbSpline
70
0
71
2
72
6
73
3
74
0
42
0.000000001
43
0.0000000001
44
0.0000000001
40
0
40
0
40
0
40
1
40
1
40
1
10
372.74926528334618
20
66.197922735784744
30
0
10
371.35630950331688
20
67.517574339483474
30
0
10
371.35630950331688
20
69.423730879400466
30
0
0
SPLINE
5
275
100
AcDbEntity
8
INTERIOR_PROFILES
100
AcDbSpline
70
0
71
2
72
6
73
3
74
0
42
0.000000001
43
0.0000000001
44
0.0000000001
40
0
40
0
40
0
40
1
40
1
40
1
10
376.26832351088524
20
64.878275900457581
30
0
10
374.21553954482079
20
64.878275900457595
30
0
10
372.74926528334618
20
66.197922735784744
30
0
0
SPLINE
5
276
100
AcDbEntity
8
INTERIOR_PROFILES
100
AcDbSpline
70
0
71
2
72
6
73
3
74
0
42
0.000000001
43
0.0000000001
44
0.0000000001
40
0
40
0
40
0
40
1
40
1
40
1
10
380.74046477675438
20
66.784432440374587
30
0
10
378.98093566298485
20
64.878275900457581
30
0
10
376.26832351088524
20
64.878275900457581
30
0
0
SPLINE
5
277
100
AcDbEntity
8
INTERIOR_PROFILES
100
AcDbSpline
70
0
71
2
72
6
73
3
74
0
42
0.000000001
43
0.0000000001
44
0.0000000001
40
0
40
0
40
0
40
1
40
1
40
1
10
382.49999389052391
20
71.769774466131423
30
0
10
382.49999389052391
20
68.763907461736892
30
0
10
380.74046477675438
20
66.784432440374587
30
0
0
SPLINE
5
278
100
AcDbEntity
8
INTERIOR_PROFILES
100
AcDbSpline
70
0
71
2
72
6
73
3
74
0
42
0.000000001
43
0.0000000001
44
0.0000000001
40
0
40
0
40
0
40
1
40
1
40
1
10
379.71406325697899
20
78.148072271917556
30
0
10
382.49999389052391
20
75.582087545965408
30
0
10
382.49999389052391
20
71.769774466131423
30
0
0
SPLINE
5
279
100
AcDbEntity
8
INTERIOR_PROFILES
100
AcDbSpline
70
0
71
2
72
6
73
3
74
0
42
0.000000001
43
0.0000000001
44
0.0000000001
40
0
40
0
40
0
40
1
40
1
40
1
10
372.96920165419579
20
80.787365942571853
30
0
10
377.00145110487938
20
80.787365942571853
30
0
10
379.71406325697899
20
78.148072271917556
30
0
0
SPLINE
5
280
100
AcDbEntity
8
INTERIOR_PROFILES
100
AcDbSpline
70
0
71
2
72
6
73
3
74
0
42
0.000000001
43
0.0000000001
44
0.0000000001
40
0
40
0
40
0
40
1
40
1
40
1
10
363.95160064101219
20
76.755106955145095
30
0
10
367.17742308974266
20
80.787365942571853
30
0
10
372.96920165419579
20
80.787365942571853
30
0
0
SPLINE
5
281
100
AcDbEntity
8
INTERIOR_PROFILES
100
AcDbSpline
70
0
71
2
72
6
73
3
74
0
42
0.000000001
43
0.0000000001
44
0.0000000001
40
0
40
0
40
0
40
1
40
1
40
1
10
361.5322433412075
20
71.256573706243728
30
0
10
362.55864486098289
20
74.995577841375564
30
0
10
363.95160064101219
20
76.755106955145095
30
0
0
LINE
5
282
100
AcDbEntity
8
INTERIOR_PROFILES
100
AcDbLine
10
361.5322433412075
20
71.256573706243728
30
0
11
361.5322433412075
21
77.488248854253982
31
0
0
SPLINE
5
283
100
AcDbEntity
8
INTERIOR_PROFILES
100
AcDbSpline
70
0
71
2
72
6
73
3
74
0
42
0.000000001
43
0.0000000001
44
0.0000000001
40
0
40
0
40
0
40
1
40
1
40
1
10
359.25952300429344
20
79.760973959539626
30
0
10
361.5322433412075
20
79.760973959539626
30
0
10
361.5322433412075
20
77.488248854253982
30
0
0
SPLINE
5
284
100
AcDbEntity
8
INTERIOR_PROFILES
100
AcDbSpline
70
0
71
2
72
6
73
3
74
0
42
0.000000001
43
0.0000000001
44
0.0000000001
40
0
40
0
40
0
40
1
40
1
40
1
10
356.76684722304344
20
79.467719107244704
30
0
10
358.45307692885399
20
79.760973959539626
30
0
10
359.25952300429344
20
79.760973959539626
30
0
0
SPLINE
5
285
100
AcDbEntity
8
INTERIOR_PROFILES
100
AcDbSpline
70
0
71
2
72
6
73
3
74
0
42
0.000000001
43
0.0000000001
44
0.0000000001
40
0
40
0
40
0
40
1
40
1
40
1
10
354.20087203383446
20
79.174464254949783
30
0
10
355.08063659071922
20
79.174464254949783
30
0
10
356.76684722304344
20
79.467719107244704
30
0
0
SPLINE
5
286
100
AcDbEntity
8
INTERIOR_PROFILES
100
AcDbSpline
70
0
71
2
72
6
73
3
74
0
42
0.000000001
43
0.0000000001
44
0.0000000001
40
0
40
0
40
0
40
1
40
1
40
1
10
351.70821532607079
20
79.467719107244704
30
0
10
353.02785262465477
20
79.174464254949783
30
0
10
354.20087203383446
20
79.174464254949783
30
0
0
SPLINE
5
287
100
AcDbEntity
8
INTERIOR_PROFILES
100
AcDbSpline
70
0
71
2
72
6
73
3
74
0
42
0.000000001
43
0.0000000001
44
0.0000000001
40
0
40
0
40
0
40
1
40
1
40
1
10
349.65541228652
20
79.760973959539626
30
0
10
350.38855895400047
20
79.760973959539626
30
0
10
351.70821532607079
20
79.467719107244704
30
0
0
SPLINE
5
288
100
AcDbEntity
8
INTERIOR_PROFILES
100
AcDbSpline
70
0
71
2
72
6
73
3
74
0
42
0.000000001
43
0.0000000001
44
0.0000000001
40
0
40
0
40
0
40
1
40
1
40
1
10
346.64954528212547
20
78.368013411138747
30
0
10
347.82258376479149
20
79.760973959539626
30
0
10
349.65541228652
20
79.760973959539626
30
0
0
SPLINE
5
289
100
AcDbEntity
8
INTERIOR_PROFILES
100
AcDbSpline
70
0
71
2
72
6
73
3
74
0
42
0.000000001
43
0.0000000001
44
0.0000000001
40
0
40
0
40
0
40
1
40
1
40
1
10
345.47652587294579
20
74.775641470525954
30
0
10
345.47652587294579
20
76.975052862737869
30
0
10
346.64954528212547
20
78.368013411138747
30
0
0
SPLINE
5
290
100
AcDbEntity
8
INTERIOR_PROFILES
100
AcDbSpline
70
0
71
2
72
6
73
3
74
0
42
0.000000001
43
0.0000000001
44
0.0000000001
40
0
40
0
40
0
40
1
40
1
40
1
10
348.99560317397118
20
70.743382483099182
30
0
10
345.47652587294579
20
70.743382483099197
30
0
10
345.47652587294579
20
74.775641470525954
30
0
0
SPLINE
5
291
100
AcDbEntity
8
INTERIOR_PROFILES
100
AcDbSpline
70
0
71
2
72
6
73
3
74
0
42
0.000000001
43
0.0000000001
44
0.0000000001
40
0
40
0
40
0
40
1
40
1
40
1
10
350.24192199110985
20
70.963318853948806
30
0
10
349.43547591567039
20
70.743382483099197
30
0
10
348.99560317397118
20
70.743382483099182
30
0
0
SPLINE
5
292
100
AcDbEntity
8
INTERIOR_PROFILES
100
AcDbSpline
70
0
71
2
72
6
73
3
74
0
42
0.000000001
43
0.0000000001
44
0.0000000001
40
0
40
0
40
0
40
1
40
1
40
1
10
351.41494140028954
20
71.256573706243728
30
0
10
351.12168654799461
20
71.256573706243728
30
0
10
350.24192199110985
20
70.963318853948806
30
0
0
SPLINE
5
293
100
AcDbEntity
8
INTERIOR_PROFILES
100
AcDbSpline
70
0
71
2
72
6
73
3
74
0
42
0.000000001
43
0.0000000001
44
0.0000000001
40
0
40
0
40
0
40
1
40
1
40
1
10
352.66127929091454
20
67.077692061041077
30
0
10
352.66127929091454
20
71.256573706243714
30
0
10
351.41494140028954
20
71.256573706243728
30
0
0
LINE
5
294
100
AcDbEntity
8
INTERIOR_PROFILES
100
AcDbLine
10
352.66127929091454
20
67.077692061041077
30
0
11
352.66127929091454
21
55.200856237982009
31
0
0
SPLINE
5
295
100
AcDbEntity
8
INTERIOR_PROFILES
100
AcDbSpline
70
0
71
2
72
6
73
3
74
0
42
0.000000001
43
0.0000000001
44
0.0000000001
40
0
40
0
40
0
40
1
40
1
40
1
10
351.41494140028954
20
51.095288305853089
30
0
10
352.66127929091454
20
51.095288305853103
30
0
10
352.66127929091454
20
55.200856237982009
30
0
0
SPLINE
5
296
100
AcDbEntity
8
INTERIOR_PROFILES
100
AcDbSpline
70
0
71
2
72
6
73
3
74
0
42
0.000000001
43
0.0000000001
44
0.0000000001
40
0
40
0
40
0
40
1
40
1
40
1
10
350.31524047255516
20
51.315229445074294
30
0
10
351.04838714003563
20
51.095288305853103
30
0
10
351.41494140028954
20
51.095288305853089
30
0
0
SPLINE
5
297
100
AcDbEntity
8
INTERIOR_PROFILES
100
AcDbSpline
70
0
71
2
72
6
73
3
74
0
42
0.000000001
43
0.0000000001
44
0.0000000001
40
0
40
0
40
0
40
1
40
1
40
1
10
348.99560317397118
20
51.608484297369216
30
0
10
349.58211287856102
20
51.608484297369216
30
0
10
350.31524047255516
20
51.315229445074294
30
0
0
SPLINE
5
298
100
AcDbEntity
8
INTERIOR_PROFILES
100
AcDbSpline
70
0
71
2
72
6
73
3
74
0
42
0.000000001
43
0.0000000001
44
0.0000000001
40
0
40
0
40
0
40
1
40
1
40
1
10
345.47652587294579
20
47.502911596868714
30
0
10
345.47652587294579
20
51.608484297369202
30
0
10
348.99560317397118
20
51.608484297369216
30
0
0
SPLINE
5
299
100
AcDbEntity
8
INTERIOR_PROFILES
100
AcDbSpline
70
0
71
2
72
6
73
3
74
0
42
0.000000001
43
0.0000000001
44
0.0000000001
40
0
40
0
40
0
40
1
40
1
40
1
10
350.02198562026024
20
42.590888052557204
30
0
10
345.47652587294579
20
42.59088805255719
30
0
10
345.47652587294579
20
47.502911596868714
30
0
0
SPLINE
5
300
100
AcDbEntity
8
INTERIOR_PROFILES
100
AcDbSpline
70
0
71
2
72
6
73
3
74
0
42
0.000000001
43
0.0000000001
44
0.0000000001
40
0
40
0
40
0
40
1
40
1
40
1
10
354.34750899672508
20
42.957461386297439
30
0
10
350.82843169569969
20
42.59088805255719
30
0
10
350.02198562026024
20
42.590888052557204
30
0
0
SPLINE
5
301
100
AcDbEntity
8
INTERIOR_PROFILES
100
AcDbSpline
70
0
71
2
72
6
73
3
74
0
42
0.000000001
43
0.0000000001
44
0.0000000001
40
0
40
0
40
0
40
1
40
1
40
1
10
359.25952300429344
20
43.177397757147048
30
0
10
356.47361144423485
20
43.177397757147048
30
0
10
354.34750899672508
20
42.957461386297439
30
0
0
SPLINE
5
302
100
AcDbEntity
8
INTERIOR_PROFILES
100
AcDbSpline
70
0
71
2
72
6
73
3
74
0
42
0.000000001
43
0.0000000001
44
0.0000000001
40
0
40
0
40
0
40
1
40
1
40
1
10
363.87830123305321
20
42.957461386297439
30
0
10
362.04545363783836
20
43.177397757147048
30
0
10
359.25952300429344
20
43.177397757147048
30
0
0
SPLINE
5
303
100
AcDbEntity
8
INTERIOR_PROFILES
100
AcDbSpline
70
0
71
2
72
6
73
3
74
0
42
0.000000001
43
0.0000000001
44
0.0000000001
40
0
40
0
40
0
40
1
40
1
40
1
10
367.98386916518211
20
42.590888052557204
30
0
10
366.88414916396141
20
42.590888052557204
30
0
10
363.87830123305321
20
42.957461386297439
30
0
0
SPLINE
5
304
100
AcDbEntity
8
INTERIOR_PROFILES
100
AcDbSpline
70
0
71
2
72
6
73
3
74
0
42
0.000000001
43
0.0000000001
44
0.0000000001
40
0
40
0
40
0
40
1
40
1
40
1
10
371.42960891127586
20
43.983853369329651
30
0
10
370.03665313124657
20
42.590888052557204
30
0
10
367.98386916518211
20
42.590888052557204
30
0
0
SPLINE
5
305
100
AcDbEntity
8
INTERIOR_PROFILES
100
AcDbSpline
70
0
71
2
72
6
73
3
74
0
42
0.000000001
43
0.0000000001
44
0.0000000001
40
0
40
0
40
0
40
1
40
1
40
1
10
372.89588317275047
20
47.576220541570876
30
0
10
372.89588317275047
20
45.450127630804275
30
0
10
371.42960891127586
20
43.983853369329651
30
0
0
SPLINE
5
306
100
AcDbEntity
8
INTERIOR_PROFILES
100
AcDbSpline
70
0
71
2
72
6
73
3
74
0
42
0.000000001
43
0.0000000001
44
0.0000000001
40
0
40
0
40
0
40
1
40
1
40
1
10
371.72286376357079
20
50.288832693670486
30
0
10
372.89588317275047
20
49.189131765936111
30
0
10
372.89588317275047
20
47.576220541570876
30
0
0
SPLINE
5
307
100
AcDbEntity
8
INTERIOR_PROFILES
100
AcDbSpline
70
0
71
2
72
6
73
3
74
0
42
0.000000001
43
0.0000000001
44
0.0000000001
40
0
40
0
40
0
40
1
40
1
40
1
10
369.01025161147118
20
51.461856871221755
30
0
10
370.62316283583641
20
51.461856871221755
30
0
10
371.72286376357079
20
50.288832693670486
30
0
0
SPLINE
5
308
100
AcDbEntity
8
INTERIOR_PROFILES
100
AcDbSpline
70
0
71
2
72
6
73
3
74
0
42
0.000000001
43
0.0000000001
44
0.0000000001
40
0
40
0
40
0
40
1
40
1
40
1
10
367.25072249770164
20
51.168602018926833
30
0
10
368.42374190688133
20
51.461856871221755
30
0
10
369.01025161147118
20
51.461856871221755
30
0
0
SPLINE
5
309
100
AcDbEntity
8
INTERIOR_PROFILES
100
AcDbSpline
70
0
71
2
72
6
73
3
74
0
42
0.000000001
43
0.0000000001
44
0.0000000001
40
0
40
0
40
0
40
1
40
1
40
1
10
365.4178749024868
20
50.875342398260315
30
0
10
366.07770308852196
20
50.875342398260315
30
0
10
367.25072249770164
20
51.168602018926833
30
0
0
SPLINE
5
310
100
AcDbEntity
8
INTERIOR_PROFILES
100
AcDbSpline
70
0
71
2
72
6
73
3
74
0
42
0.000000001
43
0.0000000001
44
0.0000000001
40
0
40
0
40
0
40
1
40
1
40
1
10
364.39149245619774
20
51.315229445074294
30
0
10
364.68474730849266
20
50.875342398260315
30
0
10
365.4178749024868
20
50.875342398260315
30
0
0
LWPOLYLINE
5
311
100
AcDbEntity
8
INTERIOR_PROFILES
100
AcDbPolyline
90
4
70
1
43
0.0
10
176.25
20
174.03575203952551
10
162.95000000000002
20
174.03575203952624
10
162.95000000000002
20
180.03575203952548
10
176.24999999999994
20
180.03575203952548
0
CIRCLE
5
312
100
AcDbEntity
8
INTERIOR_PROFILES
100
AcDbCircle
10
-210.45000000000002
20
177.63575203952547
30
0
40
0.89999999999998748
210
0
220
0
230
-1
0
CIRCLE
5
313
100
AcDbEntity
8
INTERIOR_PROFILES
100
AcDbCircle
10
-214.44999999999999
20
177.63575203952547
30
0
40
0.89999999999998748
210
0
220
0
230
-1
0
CIRCLE
5
314
100
AcDbEntity
8
INTERIOR_PROFILES
100
AcDbCircle
10
-232.05000000000001
20
176.13575203952536
30
0
40
2.4000000000000146
210
0
220
0
230
-1
0
LWPOLYLINE
5
315
100
AcDbEntity
8
INTERIOR_PROFILES
100
AcDbPolyline
90
5
70
1
43
0.0
10
91.849217837126673
20
36.69575203952639
10
98.77742106740223
20
40.695752039526305
10
105.7056242976777
20
36.695752039526226
10
105.70562429767762
20
28.815752039526199
10
91.84921783712656
20
28.815752039526203
0
CIRCLE
5
316
100
AcDbEntity
8
INTERIOR_PROFILES
100
AcDbCircle
10
-226.45000000000005
20
177.63575203952547
30
0
40
0.89999999999998748
210
0
220
0
230
-1
0
LWPOLYLINE
5
317
100
AcDbEntity
8
INTERIOR_PROFILES
100
AcDbPolyline
90
5
70
1
43
0.0
10
186.1492178371266
20
161.97575203952638
10
186.14921783712668
20
169.85575203952618
10
200.00562429767768
20
169.85575203952618
10
200.00562429767763
20
161.97575203952621
10
193.07742106740204
20
157.97575203952633
0
LWPOLYLINE
5
318
100
AcDbEntity
8
INTERIOR_PROFILES
100
AcDbPolyline
90
4
70
1
43
0.0
10
4.4800000000000395
20
169.85575203952618
10
11.405624297677726
20
169.85575203952618
10
11.405624297677619
20
161.97575203952624
10
4.480000000000004
20
157.97724098695596
0
LWPOLYLINE
5
319
100
AcDbEntity
8
INTERIOR_PROFILES
100
AcDbPolyline
90
5
70
1
43
0.0
10
86.845624297677631
20
161.97575203952624
10
79.917421067402017
20
157.97575203952633
10
72.989217837126574
20
161.97575203952641
10
72.989217837126645
20
169.85575203952618
10
86.84562429767773
20
169.85575203952618
0
LINE
5
320
100
AcDbEntity
8
INTERIOR_PROFILES
100
AcDbLine
10
256.58562429767761
20
62.01575203952622
30
0
11
256.58562429767767
21
66.042126155740192
31
0
0
SPLINE
5
321
100
AcDbEntity
8
INTERIOR_PROFILES
100
AcDbSpline
70
0
71
3
72
8
73
4
74
0
42
0.000000001
43
0.0000000001
44
0.0000000001
40
-0.44396937402602193
40
-0.44396937402602193
40
-0.44396937402602193
40
-0.44396937402602193
40
-0.34550368840196949
40
-0.34550368840196949
40
-0.34550368840196949
40
-0.34550368840196949
10
255.90058359767528
20
66.292220479453704
30
0
10
256.1252013713098
20
66.197764428038141
30
0
10
256.354139445123
20
66.114496273565379
30
0
10
256.58562429767773
20
66.042126155740206
30
0
0
SPLINE
5
322
100
AcDbEntity
8
INTERIOR_PROFILES
100
AcDbSpline
70
0
71
3
72
14
73
10
74
0
42
0.000000001
43
0.0000000001
44
0.0000000001
40
-1.0088618712424353
40
-1.0088618712424353
40
-1.0088618712424353
40
-1.0088618712424353
40
-1
40
-1
40
-1
40
-0.71343104450794137
40
-0.71343104450794137
40
-0.71343104450794137
40
-0.62651399429211718
40
-0.62651399429211718
40
-0.62651399429211718
40
-0.62651399429211718
10
254.00643851506888
20
63.427523953130994
30
0
10
254.01683371838007
20
63.439218521642204
30
0
10
254.02722892169135
20
63.450913090153456
30
0
10
254.03762412500259
20
63.462607658664737
30
0
10
254.61303628296005
20
64.109944387149227
30
0
10
255.1208579525458
20
64.824293352972219
30
0
10
255.54169518009701
20
65.586510567544153
30
0
10
255.6693361186521
20
65.817692873389376
30
0
10
255.78943708585345
20
66.053990425584445
30
0
10
255.9005836000639
20
66.292220475585623
30
0
0
SPLINE
5
323
100
AcDbEntity
8
INTERIOR_PROFILES
100
AcDbSpline
70
0
71
3
72
14
73
10
74
0
42
0.000000001
43
0.0000000001
44
0.0000000001
40
-0.93532858584718936
40
-0.93532858584718936
40
-0.93532858584718936
40
-0.93532858584718936
40
-0.61293742532011319
40
-0.61293742532011319
40
-0.61293742532011319
40
-0
40
-0
40
-0
40
0.0090475324819339654
40
0.0090475324819339654
40
0.0090475324819339654
40
0.0090475324819339654
10
246.40792918531517
20
59.891847052378665
30
0
10
247.37268648259985
20
59.937229929037024
30
0
10
248.34425357696873
20
60.097831041547771
30
0
10
249.28693011659516
20
60.394587219545386
30
0
10
251.07916824794984
20
60.958786831570464
30
0
10
252.72320499264589
20
62.037354303838725
30
0
10
253.97459972144932
20
63.393031926709114
30
0
10
253.98521265265589
20
63.404529268849537
30
0
10
253.99582558386243
20
63.416026610989967
30
0
10
254.00643851506908
20
63.427523953130475
30
0
0
LINE
5
324
100
AcDbEntity
8
INTERIOR_PROFILES
100
AcDbLine
10
246.40792918531517
20
59.891847052378665
30
0
11
249.65742106740205
21
58.015752039526305
31
0
0
LINE
5
325
100
AcDbEntity
8
INTERIOR_PROFILES
100
AcDbLine
10
249.65742106740205
20
58.015752039526305
30
0
11
256.58562429767761
21
62.01575203952622
31
0
0
LWPOLYLINE
5
326
100
AcDbEntity
8
INTERIOR_PROFILES
100
AcDbPolyline
90
6
70
1
43
0.0
10
341.45382752795342
20
144.9858790584484
10
334.52562429767795
20
140.9858790584484
10
327.59742106740242
20
144.9858790584484
10
327.59742106740242
20
152.9858790584484
10
334.52562429767795
20
156.98587905844843
10
341.45382752795342
20
152.9858790584484
0
LINE
5
327
100
AcDbEntity
8
INTERIOR_PROFILES
100
AcDbLine
10
108.65967403826632
20
141.24802479840258
30
0
11
110.12311708896392
21
142.09294403766651
31
0
0
SPLINE
5
328
100
AcDbEntity
8
INTERIOR_PROFILES
100
AcDbSpline
70
0
71
3
72
11
73
7
74
0
42
0.000000001
43
0.0000000001
44
0.0000000001
40
-1
40
-1
40
-1
40
-1
40
-0.65048367487858105
40
-0.65048367487858105
40
-0.65048367487858105
40
-0.60036231793290895
40
-0.60036231793290895
40
-0.60036231793290895
40
-0.60036231793290895
10
114.49232297550941
20
148.32582777271995
30
0
10
112.91051655765489
20
146.74401849703992
30
0
10
111.5817435757254
20
144.935501210181
30
0
10
110.54925225887291
20
142.95526561478161
30
0
10
110.4011908891578
20
142.67129577423393
30
0
10
110.25914632182248
20
142.3837753211962
30
0
10
110.12311708896397
20
142.09294403766654
30
0
0
SPLINE
5
329
100
AcDbEntity
8
INTERIOR_PROFILES
100
AcDbSpline
70
0
71
3
72
8
73
4
74
0
42
0.000000001
43
0.0000000001
44
0.0000000001
40
-0.046460312682405733
40
-0.046460312682405733
40
-0.046460312682405733
40
-0.046460312682405733
40
-0
40
-0
40
-0
40
-0
10
115.13382752795349
20
148.94158978103292
30
0
10
114.9160939213649
20
148.74098854818359
30
0
10
114.7022149707763
20
148.53571938879037
30
0
10
114.49232936309878
20
148.32583416030928
30
0
0
LINE
5
330
100
AcDbEntity
8
INTERIOR_PROFILES
100
AcDbLine
10
115.13382752795349
20
148.94158978103292
30
0
11
115.13382752795344
21
152.98587905844843
31
0
0
LINE
5
331
100
AcDbEntity
8
INTERIOR_PROFILES
100
AcDbLine
10
115.13382752795344
20
152.98587905844843
30
0
11
108.20562429767793
21
156.98587905844843
31
0
0
LINE
5
332
100
AcDbEntity
8
INTERIOR_PROFILES
100
AcDbLine
10
108.20562429767793
20
156.98587905844843
30
0
11
101.27742106740243
21
152.98587905844838
31
0
0
LINE
5
333
100
AcDbEntity
8
INTERIOR_PROFILES
100
AcDbLine
10
101.27742106740243
20
152.98587905844838
30
0
11
101.27742106740243
21
152.50004861784308
31
0
0
SPLINE
5
334
100
AcDbEntity
8
INTERIOR_PROFILES
100
AcDbSpline
70
0
71
3
72
11
73
7
74
0
42
0.000000001
43
0.0000000001
44
0.0000000001
40
-1.001752162324492
40
-1.001752162324492
40
-1.001752162324492
40
-1.001752162324492
40
-1
40
-1
40
-1
40
-0.91073888303111616
40
-0.91073888303111616
40
-0.91073888303111616
40
-0.91073888303111616
10
102.35582394274741
20
151.88553967370748
30
0
10
102.35128510459447
20
151.88836573927802
30
0
10
102.3467462664421
20
151.89119180484818
30
0
10
102.3422074282897
20
151.89401787041834
30
0
10
101.99551558513139
20
152.10988233804588
30
0
10
101.64040280020016
20
152.31155341420401
30
0
10
101.27742106740243
20
152.50004861784308
30
0
0
SPLINE
5
335
100
AcDbEntity
8
INTERIOR_PROFILES
100
AcDbSpline
70
0
71
3
72
14
73
10
74
0
42
0.000000001
43
0.0000000001
44
0.0000000001
40
-0.7960045624484573
40
-0.7960045624484573
40
-0.7960045624484573
40
-0.7960045624484573
40
-0.42845384431695699
40
-0.42845384431695699
40
-0.42845384431695699
40
-0
40
-0
40
-0
40
0.0016226786331220589
40
0.0016226786331220589
40
0.0016226786331220589
40
0.0016226786331220589
10
108.65967403826632
20
141.24802479840258
30
0
10
108.38923202954541
20
143.2443495776154
30
0
10
107.85086573172636
20
145.1288210222599
30
0
10
106.94798980375418
20
146.86273612655611
30
0
10
105.89550740282874
20
148.88396083244601
30
0
10
104.30506459537159
20
150.65443809051391
30
0
10
102.36938590691665
20
151.87697420774515
30
0
10
102.36486525227882
20
151.87982936320108
30
0
10
102.36034459764097
20
151.88268451865702
30
0
10
102.35582394300471
20
151.88553967411195
30
0
0
SPLINE
5
336
100
AcDbEntity
8
INTERIOR_PROFILES
100
AcDbSpline
70
0
71
3
72
11
73
7
74
0
42
0.000000001
43
0.0000000001
44
0.0000000001
40
-0.46207948095860241
40
-0.46207948095860241
40
-0.46207948095860241
40
-0.46207948095860241
40
-0.37146435210820172
40
-0.37146435210820172
40
-0.37146435210820172
40
-0.27121610183210731
40
-0.27121610183210731
40
-0.27121610183210731
40
-0.27121610183210731
10
270.1793959426073
20
39.73621039794017
30
0
10
270.50011537133457
20
39.484944017594096
30
0
10
270.83939057097473
20
39.25161207596706
30
0
10
271.19747711959752
20
39.039990305491926
30
0
10
271.59363116586172
20
38.805871428439012
30
0
10
272.00955111756122
20
38.603256134297254
30
0
10
272.43802255898692
20
38.432191712974657
30
0
0
LINE
5
337
100
AcDbEntity
8
INTERIOR_PROFILES
100
AcDbLine
10
270.1793959426073
20
39.73621039794017
30
0
11
268.51742106740227
21
40.695752039526312
31
0
0
LINE
5
338
100
AcDbEntity
8
INTERIOR_PROFILES
100
AcDbLine
10
268.51742106740227
20
40.695752039526312
30
0
11
261.58921783712668
21
36.695752039526397
31
0
0
LINE
5
339
100
AcDbEntity
8
INTERIOR_PROFILES
100
AcDbLine
10
261.58921783712668
20
36.695752039526397
30
0
11
261.58921783712663
21
28.815752039526199
31
0
0
LINE
5
340
100
AcDbEntity
8
INTERIOR_PROFILES
100
AcDbLine
10
261.58921783712663
20
28.815752039526199
30
0
11
275.44562429767763
21
28.815752039526188
31
0
0
LINE
5
341
100
AcDbEntity
8
INTERIOR_PROFILES
100
AcDbLine
10
275.44562429767763
20
28.815752039526188
30
0
11
275.44562429767774
21
36.695752039526219
31
0
0
LINE
5
342
100
AcDbEntity
8
INTERIOR_PROFILES
100
AcDbLine
10
275.44562429767774
20
36.695752039526219
30
0
11
272.43802255898692
21
38.432191712974657
31
0
0
LINE
5
343
100
AcDbEntity
8
INTERIOR_PROFILES
100
AcDbLine
10
30.265624297677682
20
166.26079926293809
30
0
11
30.265624297677753
21
169.85575203952618
31
0
0
LINE
5
344
100
AcDbEntity
8
INTERIOR_PROFILES
100
AcDbLine
10
30.265624297677753
20
169.85575203952618
30
0
11
16.409217837126668
21
169.85575203952618
31
0
0
LINE
5
345
100
AcDbEntity
8
INTERIOR_PROFILES
100
AcDbLine
10
16.409217837126668
20
169.85575203952618
30
0
11
16.409217837126597
21
161.97575203952638
31
0
0
LINE
5
346
100
AcDbEntity
8
INTERIOR_PROFILES
100
AcDbLine
10
16.409217837126597
20
161.97575203952638
30
0
11
18.341745667579126
21
160.86000657639815
31
0
0
SPLINE
5
347
100
AcDbEntity
8
INTERIOR_PROFILES
100
AcDbSpline
70
0
71
3
72
11
73
7
74
0
42
0.000000001
43
0.0000000001
44
0.0000000001
40
-0.98182363363976044
40
-0.98182363363976044
40
-0.98182363363976044
40
-0.98182363363976044
40
-0.66998255094139325
40
-0.66998255094139325
40
-0.66998255094139325
40
-0.58593517900717873
40
-0.58593517900717873
40
-0.58593517900717873
40
-0.58593517900717873
10
20.014762612660029
20
163.44224937281842
30
0
10
19.467063571554171
20
162.84443805793802
30
0
10
18.993931380492022
20
162.16729348391934
30
0
10
18.620918521668202
20
161.44809578833193
30
0
10
18.520384139826866
20
161.25425770999979
30
0
10
18.427433381843656
20
161.05807819387132
30
0
10
18.341745667579104
20
160.86000657639812
30
0
0
SPLINE
5
348
100
AcDbEntity
8
INTERIOR_PROFILES
100
AcDbSpline
70
0
71
3
72
11
73
7
74
0
42
0.000000001
43
0.0000000001
44
0.0000000001
40
-1
40
-1
40
-1
40
-1
40
-0.56819325150498257
40
-0.56819325150498257
40
-0.56819325150498257
40
-0.017957287976781134
40
-0.017957287976781134
40
-0.017957287976781134
40
-0.017957287976781134
10
26.97214081883434
20
166.50583794650859
30
0
10
25.892850534816958
20
166.50583794650859
30
0
10
24.765970928010539
20
166.34468744002905
30
0
10
23.671643977202876
20
165.95122249715342
30
0
10
22.277182111353895
20
165.44984413122395
30
0
10
20.974828371243923
20
164.54697520412449
30
0
10
20.014762612659602
20
163.44224937281879
30
0
0
SPLINE
5
349
100
AcDbEntity
8
INTERIOR_PROFILES
100
AcDbSpline
70
0
71
3
72
11
73
7
74
0
42
0.000000001
43
0.0000000001
44
0.0000000001
40
-0.97770683118150215
40
-0.97770683118150215
40
-0.97770683118150215
40
-0.97770683118150215
40
-0.91071009056906915
40
-0.91071009056906915
40
-0.91071009056906915
40
-0
40
-0
40
-0
40
-0
10
30.265624297677675
20
166.26079926293812
30
0
10
30.177665745128888
20
166.27123062340951
30
0
10
30.090791586689178
20
166.28134551236462
30
0
10
30.004977826268515
20
166.29114361950235
30
0
10
28.838481414497217
20
166.42433271134792
30
0
10
27.90106621461323
20
166.50583794650859
30
0
10
26.97214081883434
20
166.50583794650859
30
0
0
SPLINE
5
350
100
AcDbEntity
8
INTERIOR_PROFILES
100
AcDbSpline
70
0
71
3
72
8
73
4
74
0
42
0.000000001
43
0.0000000001
44
0.0000000001
40
-0.52514492890069819
40
-0.52514492890069819
40
-0.52514492890069819
40
-0.52514492890069819
40
-0.13658611168614745
40
-0.13658611168614745
40
-0.13658611168614745
40
-0.13658611168614745
10
386.49564080071207
20
77.007454271381405
30
0
10
385.93473990132225
20
78.36219351657796
30
0
10
385.14080312726691
20
79.618153984877196
30
0
10
384.17742106740229
20
80.721364448502356
30
0
0
LINE
5
351
100
AcDbEntity
8
INTERIOR_PROFILES
100
AcDbLine
10
386.49564080071207
20
77.007454271381405
30
0
11
391.10562429767799
21
74.345879058448403
31
0
0
LINE
5
352
100
AcDbEntity
8
INTERIOR_PROFILES
100
AcDbLine
10
391.10562429767799
20
74.345879058448403
30
0
11
398.03382752795346
21
78.345879058448418
31
0
0
LINE
5
353
100
AcDbEntity
8
INTERIOR_PROFILES
100
AcDbLine
10
398.03382752795346
20
78.345879058448418
30
0
11
398.03382752795346
21
86.345879058448418
31
0
0
LINE
5
354
100
AcDbEntity
8
INTERIOR_PROFILES
100
AcDbLine
10
398.03382752795346
20
86.345879058448418
30
0
11
391.10562429767788
21
90.345879058448418
31
0
0
LINE
5
355
100
AcDbEntity
8
INTERIOR_PROFILES
100
AcDbLine
10
391.10562429767788
20
90.345879058448418
30
0
11
384.17742106740241
21
86.345879058448389
31
0
0
LINE
5
356
100
AcDbEntity
8
INTERIOR_PROFILES
100
AcDbLine
10
384.17742106740241
20
86.345879058448389
30
0
11
384.17742106740218
21
80.721364448502356
31
0
0
LWPOLYLINE
5
357
100
AcDbEntity
8
INTERIOR_PROFILES
100
AcDbPolyline
90
6
70
1
43
0.0
10
379.17382752795345
20
144.98587905844843
10
372.24562429767792
20
140.9858790584484
10
365.31742106740245
20
144.9858790584484
10
365.31742106740239
20
152.98587905844838
10
372.24562429767786
20
156.98587905844843
10
379.17382752795339
20
152.98587905844843
0
LWPOLYLINE
5
358
100
AcDbEntity
8
INTERIOR_PROFILES
100
AcDbPolyline
90
6
70
1
43
0.0
10
365.31742106740239
20
111.66587905844838
10
365.31742106740239
20
119.6658790584484
10
372.24562429767792
20
123.66587905844841
10
379.17382752795339
20
119.66587905844844
10
379.17382752795345
20
111.66587905844843
10
372.24562429767792
20
107.66587905844841
0
LINE
5
359
100
AcDbEntity
8
INTERIOR_PROFILES
100
AcDbLine
10
85.970923099559897
20
126.40266848252483
30
0
11
85.97092309955994
21
134.14988214484981
31
0
0
SPLINE
5
360
100
AcDbEntity
8
INTERIOR_PROFILES
100
AcDbSpline
70
0
71
2
72
6
73
3
74
0
42
0.000000001
43
0.0000000001
44
0.0000000001
40
0
40
0
40
0
40
0.27647585403487895
40
0.27647585403487895
40
0.27647585403487895
10
83.350440412759781
20
133.6466031366331
30
0
10
84.78957420295086
20
133.88983679384745
30
0
10
85.970923099559897
20
134.14988214484981
30
0
0
SPLINE
5
361
100
AcDbEntity
8
INTERIOR_PROFILES
100
AcDbSpline
70
0
71
2
72
6
73
3
74
0
42
0.000000001
43
0.0000000001
44
0.0000000001
40
0
40
0
40
0
40
1
40
1
40
1
10
76.752201467752457
20
132.03369668063945
30
0
10
79.611441045999527
20
132.98677495059795
30
0
10
83.350440412759781
20
133.6466031366331
30
0
0
SPLINE
5
362
100
AcDbEntity
8
INTERIOR_PROFILES
100
AcDbSpline
70
0
71
2
72
6
73
3
74
0
42
0.000000001
43
0.0000000001
44
0.0000000001
40
0
40
0
40
0
40
1
40
1
40
1
10
70.080648809671402
20
122.06302216586894
30
0
10
70.08064880967143
20
129.76097157535381
30
0
10
76.752201467752457
20
132.03369668063945
30
0
0
SPLINE
5
363
100
AcDbEntity
8
INTERIOR_PROFILES
100
AcDbSpline
70
0
71
2
72
6
73
3
74
0
42
0.000000001
43
0.0000000001
44
0.0000000001
40
0
40
0
40
0
40
1
40
1
40
1
10
73.526393324136762
20
113.9251904779417
30
0
10
70.080648809671402
20
117.00437119540996
30
0
10
70.080648809671402
20
122.06302216586894
30
0
0
SPLINE
5
364
100
AcDbEntity
8
INTERIOR_PROFILES
100
AcDbSpline
70
0
71
2
72
6
73
3
74
0
42
0.000000001
43
0.0000000001
44
0.0000000001
40
0
40
0
40
0
40
1
40
1
40
1
10
82.763930708169937
20
110.91932347354717
30
0
10
76.972142606973648
20
110.91932347354717
30
0
10
73.526393324136762
20
113.9251904779417
30
0
0
SPLINE
5
365
100
AcDbEntity
8
INTERIOR_PROFILES
100
AcDbSpline
70
0
71
2
72
6
73
3
74
0
42
0.000000001
43
0.0000000001
44
0.0000000001
40
0.76467063559171244
40
0.76467063559171244
40
0.76467063559171244
40
1
40
1
40
1
10
85.970923099504134
20
111.18729105139316
30
0
10
84.420208424450692
20
110.91932347354717
30
0
10
82.763930708169937
20
110.91932347354717
30
0
0
LINE
5
366
100
AcDbEntity
8
INTERIOR_PROFILES
100
AcDbLine
10
85.970923099504134
20
111.18729105139316
30
0
11
85.970923099559897
21
119.86425941879772
31
0
0
SPLINE
5
367
100
AcDbEntity
8
INTERIOR_PROFILES
100
AcDbSpline
70
0
71
2
72
6
73
3
74
0
42
0.000000001
43
0.0000000001
44
0.0000000001
40
0
40
0
40
0
40
0.009842540877502113
40
0.009842540877502113
40
0.009842540877502113
10
85.843111425638227
20
119.86360600528545
30
0
10
85.907333315889076
20
119.86360600528545
30
0
10
85.970923099559897
20
119.86425941879772
30
0
0
SPLINE
5
368
100
AcDbEntity
8
INTERIOR_PROFILES
100
AcDbSpline
70
0
71
2
72
6
73
3
74
0
42
0.000000001
43
0.0000000001
44
0.0000000001
40
0
40
0
40
0
40
1
40
1
40
1
10
81.884166151285172
20
123.23604157504863
30
0
10
81.8841661512852
20
119.86360600528545
30
0
10
85.843111425638227
20
119.86360600528545
30
0
0
SPLINE
5
369
100
AcDbEntity
8
INTERIOR_PROFILES
100
AcDbSpline
70
0
71
2
72
6
73
3
74
0
42
0.000000001
43
0.0000000001
44
0.0000000001
40
0
40
0
40
0
40
1
40
1
40
1
10
85.916425138711958
20
126.38853600559062
30
0
10
81.884166151285172
20
125.36213925418681
30
0
10
81.884166151285172
20
123.23604157504863
30
0
0
LINE
5
370
100
AcDbEntity
8
INTERIOR_PROFILES
100
AcDbLine
10
85.970923099559897
20
126.40266848252483
30
0
11
85.916425138711958
21
126.38853600559062
31
0
0
SPLINE
5
371
100
AcDbEntity
8
INTERIOR_PROFILES
100
AcDbSpline
70
0
71
2
72
6
73
3
74
0
42
0.000000001
43
0.0000000001
44
0.0000000001
40
0
40
0
40
0
40
1
40
1
40
1
10
239.08357754349711
20
148.82255604801006
30
0
10
240.76978817582133
20
149.04249241885967
30
0
10
241.5029348433018
20
149.04249241885967
30
0
0
SPLINE
5
372
100
AcDbEntity
8
INTERIOR_PROFILES
100
AcDbSpline
70
0
71
2
72
6
73
3
74
0
42
0.000000001
43
0.0000000001
44
0.0000000001
40
0
40
0
40
0
40
1
40
1
40
1
10
235.93107357621196
20
148.45598271426982
30
0
10
236.22432842850688
20
148.45598271426982
30
0
10
239.08357754349711
20
148.82255604801006
30
0
0
SPLINE
5
373
100
AcDbEntity
8
INTERIOR_PROFILES
100
AcDbSpline
70
0
71
2
72
6
73
3
74
0
42
0.000000001
43
0.0000000001
44
0.0000000001
40
0
40
0
40
0
40
1
40
1
40
1
10
232.99852505326274
20
148.74923756656474
30
0
10
234.97800961136821
20
148.45598271426982
30
0
10
235.93107357621196
20
148.45598271426982
30
0
0
SPLINE
5
374
100
AcDbEntity
8
INTERIOR_PROFILES
100
AcDbSpline
70
0
71
2
72
6
73
3
74
0
42
0.000000001
43
0.0000000001
44
0.0000000001
40
0
40
0
40
0
40
1
40
1
40
1
10
229.99265804886821
20
149.04249241885967
30
0
10
231.0190595686436
20
149.04249241885967
30
0
10
232.99852505326274
20
148.74923756656474
30
0
0
SPLINE
5
375
100
AcDbEntity
8
INTERIOR_PROFILES
100
AcDbSpline
70
0
71
2
72
6
73
3
74
0
42
0.000000001
43
0.0000000001
44
0.0000000001
40
0
40
0
40
0
40
1
40
1
40
1
10
225.8870901167393
20
143.98384144840068
30
0
10
225.8870901167393
20
149.04249241885967
30
0
10
229.99265804886821
20
149.04249241885967
30
0
0
SPLINE
5
376
100
AcDbEntity
8
INTERIOR_PROFILES
100
AcDbSpline
70
0
71
2
72
6
73
3
74
0
42
0.000000001
43
0.0000000001
44
0.0000000001
40
0
40
0
40
0
40
1
40
1
40
1
10
228.59970226883891
20
140.09820988712139
30
0
10
225.8870901167393
20
140.09820988712139
30
0
10
225.8870901167393
20
143.98384144840068
30
0
0
SPLINE
5
377
100
AcDbEntity
8
INTERIOR_PROFILES
100
AcDbSpline
70
0
71
2
72
6
73
3
74
0
42
0.000000001
43
0.0000000001
44
0.0000000001
40
0
40
0
40
0
40
1
40
1
40
1
10
229.69940319657329
20
140.24483731326885
30
0
10
229.03957501053813
20
140.09820988712139
30
0
10
228.59970226883891
20
140.09820988712139
30
0
0
SPLINE
5
378
100
AcDbEntity
8
INTERIOR_PROFILES
100
AcDbSpline
70
0
71
2
72
6
73
3
74
0
42
0.000000001
43
0.0000000001
44
0.0000000001
40
0
40
0
40
0
40
1
40
1
40
1
10
230.87242260575297
20
140.46478322086165
30
0
10
230.43254986405375
20
140.46478322086162
30
0
10
229.69940319657329
20
140.24483731326885
30
0
0
SPLINE
5
379
100
AcDbEntity
8
INTERIOR_PROFILES
100
AcDbSpline
70
0
71
2
72
6
73
3
74
0
42
0.000000001
43
0.0000000001
44
0.0000000001
40
0
40
0
40
0
40
1
40
1
40
1
10
232.55865231156352
20
136.72577908572978
30
0
10
232.55865231156352
20
140.46478322086162
30
0
10
230.87242260575297
20
140.46478322086165
30
0
0
LINE
5
380
100
AcDbEntity
8
INTERIOR_PROFILES
100
AcDbLine
10
232.55865231156352
20
136.72577908572978
30
0
11
232.55865231156352
21
129.90759900150127
31
0
0
SPLINE
5
381
100
AcDbEntity
8
INTERIOR_PROFILES
100
AcDbSpline
70
0
71
2
72
6
73
3
74
0
42
0.000000001
43
0.0000000001
44
0.0000000001
40
0
40
0
40
0
40
1
40
1
40
1
10
225.96040859818461
20
120.7433753305418
30
0
10
232.55865231156352
20
120.7433753305418
30
0
10
232.55865231156352
20
129.90759900150127
30
0
0
SPLINE
5
382
100
AcDbEntity
8
INTERIOR_PROFILES
100
AcDbSpline
70
0
71
2
72
6
73
3
74
0
42
0.000000001
43
0.0000000001
44
0.0000000001
40
0
40
0
40
0
40
1
40
1
40
1
10
221.41494885087016
20
126.46184971866435
30
0
10
221.63488522171977
20
120.7433753305418
30
0
10
225.96040859818461
20
120.7433753305418
30
0
0
LINE
5
383
100
AcDbEntity
8
INTERIOR_PROFILES
100
AcDbLine
10
221.41494885087016
20
126.46184971866435
30
0
11
221.26833096146586
21
145.96331646976299
31
0
0
SPLINE
5
384
100
AcDbEntity
8
INTERIOR_PROFILES
100
AcDbSpline
70
0
71
2
72
6
73
3
74
0
42
0.000000001
43
0.0000000001
44
0.0000000001
40
0
40
0
40
0
40
1
40
1
40
1
10
219.06891003251079
20
149.04249241885967
30
0
10
221.26833096146586
20
149.04249241885967
30
0
10
221.26833096146586
20
145.96331646976299
30
0
0
SPLINE
5
385
100
AcDbEntity
8
INTERIOR_PROFILES
100
AcDbSpline
70
0
71
2
72
6
73
3
74
0
42
0.000000001
43
0.0000000001
44
0.0000000001
40
0
40
0
40
0
40
1
40
1
40
1
10
216.42961636185649
20
148.74923756656474
30
0
10
218.18914547562602
20
149.04249241885967
30
0
10
219.06891003251079
20
149.04249241885967
30
0
0
SPLINE
5
386
100
AcDbEntity
8
INTERIOR_PROFILES
100
AcDbSpline
70
0
71
2
72
6
73
3
74
0
42
0.000000001
43
0.0000000001
44
0.0000000001
40
0
40
0
40
0
40
1
40
1
40
1
10
213.79032269120219
20
148.45598271426982
30
0
10
214.67008724808696
20
148.45598271426982
30
0
10
216.42961636185649
20
148.74923756656474
30
0
0
SPLINE
5
387
100
AcDbEntity
8
INTERIOR_PROFILES
100
AcDbSpline
70
0
71
2
72
6
73
3
74
0
42
0.000000001
43
0.0000000001
44
0.0000000001
40
0
40
0
40
0
40
1
40
1
40
1
10
211.07771053910258
20
148.74923756656474
30
0
10
212.91055813431743
20
148.45598271426982
30
0
10
213.79032269120219
20
148.45598271426982
30
0
0
SPLINE
5
388
100
AcDbEntity
8
INTERIOR_PROFILES
100
AcDbSpline
70
0
71
2
72
6
73
3
74
0
42
0.000000001
43
0.0000000001
44
0.0000000001
40
0
40
0
40
0
40
1
40
1
40
1
10
208.36509838700297
20
149.04249241885967
30
0
10
209.24486294388774
20
149.04249241885967
30
0
10
211.07771053910258
20
148.74923756656474
30
0
0
SPLINE
5
389
100
AcDbEntity
8
INTERIOR_PROFILES
100
AcDbSpline
70
0
71
2
72
6
73
3
74
0
42
0.000000001
43
0.0000000001
44
0.0000000001
40
0
40
0
40
0
40
1
40
1
40
1
10
203.89295712113383
20
144.13046887454814
30
0
10
203.89295712113383
20
149.04249241885967
30
0
10
208.36509838700297
20
149.04249241885967
30
0
0
SPLINE
5
390
100
AcDbEntity
8
INTERIOR_PROFILES
100
AcDbSpline
70
0
71
2
72
6
73
3
74
0
42
0.000000001
43
0.0000000001
44
0.0000000001
40
0
40
0
40
0
40
1
40
1
40
1
10
207.19207897782329
20
140.09820988712139
30
0
10
203.89295712113383
20
140.09820988712139
30
0
10
203.89295712113383
20
144.13046887454814
30
0
0
SPLINE
5
391
100
AcDbEntity
8
INTERIOR_PROFILES
100
AcDbSpline
70
0
71
2
72
6
73
3
74
0
42
0.000000001
43
0.0000000001
44
0.0000000001
40
0
40
0
40
0
40
1
40
1
40
1
10
207.92520657181743
20
140.1715283685667
30
0
10
207.70527020096782
20
140.09820988712139
30
0
10
207.19207897782329
20
140.09820988712139
30
0
0
LINE
5
392
100
AcDbEntity
8
INTERIOR_PROFILES
100
AcDbLine
10
207.92520657181743
20
140.1715283685667
30
0
11
208.6583532392979
21
140.1715283685667
31
0
0
SPLINE
5
393
100
AcDbEntity
8
INTERIOR_PROFILES
100
AcDbSpline
70
0
71
2
72
6
73
3
74
0
42
0.000000001
43
0.0000000001
44
0.0000000001
40
0
40
0
40
0
40
1
40
1
40
1
10
209.68475475907329
20
139.73164609012431
30
0
10
209.39149990677836
20
140.1715283685667
30
0
10
208.6583532392979
20
140.1715283685667
30
0
0
SPLINE
5
394
100
AcDbEntity
8
INTERIOR_PROFILES
100
AcDbSpline
70
0
71
2
72
6
73
3
74
0
42
0.000000001
43
0.0000000001
44
0.0000000001
40
0
40
0
40
0
40
1
40
1
40
1
10
210.05130901932719
20
136.72577908572978
30
0
10
210.05130901932719
20
139.29176381168193
30
0
10
209.68475475907329
20
139.73164609012431
30
0
0
LINE
5
395
100
AcDbEntity
8
INTERIOR_PROFILES
100
AcDbLine
10
210.05130901932719
20
136.72577908572978
30
0
11
210.05130901932719
21
125.36213925418681
31
0
0
SPLINE
5
396
100
AcDbEntity
8
INTERIOR_PROFILES
100
AcDbSpline
70
0
71
2
72
6
73
3
74
0
42
0.000000001
43
0.0000000001
44
0.0000000001
40
0
40
0
40
0
40
1
40
1
40
1
10
211.22432842850688
20
116.27123406467265
30
0
10
210.05130901932719
20
118.76390030917949
30
0
10
210.05130901932719
20
125.36213925418681
30
0
0
SPLINE
5
397
100
AcDbEntity
8
INTERIOR_PROFILES
100
AcDbSpline
70
0
71
2
72
6
73
3
74
0
42
0.000000001
43
0.0000000001
44
0.0000000001
40
0
40
0
40
0
40
1
40
1
40
1
10
215.2565969526768
20
112.38560727176494
30
0
10
212.47066631913188
20
113.85188153323955
30
0
10
211.22432842850688
20
116.27123406467265
30
0
0
SPLINE
5
398
100
AcDbEntity
8
INTERIOR_PROFILES
100
AcDbSpline
70
0
71
2
72
6
73
3
74
0
42
0.000000001
43
0.0000000001
44
0.0000000001
40
0
40
0
40
0
40
1
40
1
40
1
10
221.41494885087016
20
110.91932347354717
30
0
10
218.0425085127354
20
110.91932347354717
30
0
10
215.2565969526768
20
112.38560727176494
30
0
0
SPLINE
5
399
100
AcDbEntity
8
INTERIOR_PROFILES
100
AcDbSpline
70
0
71
2
72
6
73
3
74
0
42
0.000000001
43
0.0000000001
44
0.0000000001
40
0
40
0
40
0
40
1
40
1
40
1
10
234.24486294388774
20
117.07768490848369
30
0
10
229.40614834427836
20
110.91932347354717
30
0
10
221.41494885087016
20
110.91932347354717
30
0
0
LINE
5
400
100
AcDbEntity
8
INTERIOR_PROFILES
100
AcDbLine
10
234.24486294388774
20
117.07768490848369
30
0
11
234.24486294388774
21
114.21844533023662
31
0
0
SPLINE
5
401
100
AcDbEntity
8
INTERIOR_PROFILES
100
AcDbSpline
70
0
71
2
72
6
73
3
74
0
42
0.000000001
43
0.0000000001
44
0.0000000001
40
0
40
0
40
0
40
1
40
1
40
1
10
236.3709653913975
20
111.87240651187724
30
0
10
234.24486294388774
20
111.87240651187724
30
0
10
234.24486294388774
20
114.21844533023662
30
0
0
SPLINE
5
402
100
AcDbEntity
8
INTERIOR_PROFILES
100
AcDbSpline
70
0
71
2
72
6
73
3
74
0
42
0.000000001
43
0.0000000001
44
0.0000000001
40
0
40
0
40
0
40
1
40
1
40
1
10
238.71700420975688
20
112.16566136417217
30
0
10
237.17741146683696
20
111.87240651187724
30
0
10
236.3709653913975
20
111.87240651187724
30
0
0
SPLINE
5
403
100
AcDbEntity
8
INTERIOR_PROFILES
100
AcDbSpline
70
0
71
2
72
6
73
3
74
0
42
0.000000001
43
0.0000000001
44
0.0000000001
40
0
40
0
40
0
40
1
40
1
40
1
10
241.13636150956157
20
112.45891621646709
30
0
10
240.32991543412211
20
112.45891621646709
30
0
10
238.71700420975688
20
112.16566136417217
30
0
0
SPLINE
5
404
100
AcDbEntity
8
INTERIOR_PROFILES
100
AcDbSpline
70
0
71
2
72
6
73
3
74
0
42
0.000000001
43
0.0000000001
44
0.0000000001
40
0
40
0
40
0
40
1
40
1
40
1
10
243.70233669877055
20
112.16566136417217
30
0
10
242.01612606644633
20
112.45891621646709
30
0
10
241.13636150956157
20
112.45891621646709
30
0
0
SPLINE
5
405
100
AcDbEntity
8
INTERIOR_PROFILES
100
AcDbSpline
70
0
71
2
72
6
73
3
74
0
42
0.000000001
43
0.0000000001
44
0.0000000001
40
0
40
0
40
0
40
1
40
1
40
1
10
246.34163036942485
20
111.87240651187724
30
0
10
245.46186581254008
20
111.87240651187724
30
0
10
243.70233669877055
20
112.16566136417217
30
0
0
SPLINE
5
406
100
AcDbEntity
8
INTERIOR_PROFILES
100
AcDbSpline
70
0
71
2
72
6
73
3
74
0
42
0.000000001
43
0.0000000001
44
0.0000000001
40
0
40
0
40
0
40
1
40
1
40
1
10
250.66715374588969
20
116.93105748233623
30
0
10
250.66715374588969
20
111.87240651187724
30
0
10
246.34163036942485
20
111.87240651187724
30
0
0
SPLINE
5
407
100
AcDbEntity
8
INTERIOR_PROFILES
100
AcDbSpline
70
0
71
2
72
6
73
3
74
0
42
0.000000001
43
0.0000000001
44
0.0000000001
40
0
40
0
40
0
40
1
40
1
40
1
10
247.51464977860454
20
120.7433753305418
30
0
10
250.66715374588969
20
120.7433753305418
30
0
10
250.66715374588969
20
116.93105748233623
30
0
0
SPLINE
5
408
100
AcDbEntity
8
INTERIOR_PROFILES
100
AcDbSpline
70
0
71
2
72
6
73
3
74
0
42
0.000000001
43
0.0000000001
44
0.0000000001
40
0
40
0
40
0
40
1
40
1
40
1
10
246.26833096146586
20
120.59674790439433
30
0
10
246.70820370316508
20
120.7433753305418
30
0
10
247.51464977860454
20
120.7433753305418
30
0
0
SPLINE
5
409
100
AcDbEntity
8
INTERIOR_PROFILES
100
AcDbSpline
70
0
71
2
72
6
73
3
74
0
42
0.000000001
43
0.0000000001
44
0.0000000001
40
0
40
0
40
0
40
1
40
1
40
1
10
245.24192944169047
20
120.45012047824687
30
0
10
245.82843914628032
20
120.45012047824687
30
0
10
246.26833096146586
20
120.59674790439433
30
0
0
SPLINE
5
410
100
AcDbEntity
8
INTERIOR_PROFILES
100
AcDbSpline
70
0
71
2
72
6
73
3
74
0
42
0.000000001
43
0.0000000001
44
0.0000000001
40
0
40
0
40
0
40
1
40
1
40
1
10
243.84897366166118
20
124.11581090030498
30
0
10
243.84897366166118
20
120.45012047824687
30
0
10
245.24192944169047
20
120.45012047824687
30
0
0
LINE
5
411
100
AcDbEntity
8
INTERIOR_PROFILES
100
AcDbLine
10
243.84897366166118
20
124.11581090030498
30
0
11
243.84897366166118
21
146.40319874820537
31
0
0
SPLINE
5
412
100
AcDbEntity
8
INTERIOR_PROFILES
100
AcDbSpline
70
0
71
2
72
6
73
3
74
0
42
0.000000001
43
0.0000000001
44
0.0000000001
40
0
40
0
40
0
40
1
40
1
40
1
10
241.5029348433018
20
149.04249241885967
30
0
10
243.84897366166118
20
149.04249241885967
30
0
10
243.84897366166118
20
146.40319874820537
30
0
0
SPLINE
5
413
100
AcDbEntity
8
INTERIOR_PROFILES
100
AcDbSpline
70
0
71
2
72
6
73
3
74
0
42
0.000000001
43
0.0000000001
44
0.0000000001
40
0
40
0
40
0
40
0.74326310741907464
40
0.74326310741907464
40
0.74326310741907464
10
328.68769988417625
20
71.476519613836501
30
0
10
327.43438755321313
20
72.566347177748725
30
0
10
325.85707431052595
20
72.846146119956586
30
0
0
SPLINE
5
414
100
AcDbEntity
8
INTERIOR_PROFILES
100
AcDbSpline
70
0
71
2
72
6
73
3
74
0
42
0.000000001
43
0.0000000001
44
0.0000000001
40
0
40
0
40
0
40
1
40
1
40
1
10
330.37391051650047
20
68.177397757147048
30
0
10
330.37391051650047
20
70.08355429706404
30
0
10
328.68769988417625
20
71.476519613836501
30
0
0
SPLINE
5
415
100
AcDbEntity
8
INTERIOR_PROFILES
100
AcDbSpline
70
0
71
2
72
6
73
3
74
0
42
0.000000001
43
0.0000000001
44
0.0000000001
40
0
40
0
40
0
40
1
40
1
40
1
10
330.08065566420555
20
67.224319487188552
30
0
10
330.37391051650047
20
67.517574339483474
30
0
10
330.37391051650047
20
68.177397757147048
30
0
0
SPLINE
5
416
100
AcDbEntity
8
INTERIOR_PROFILES
100
AcDbSpline
70
0
71
2
72
6
73
3
74
0
42
0.000000001
43
0.0000000001
44
0.0000000001
40
0
40
0
40
0
40
1
40
1
40
1
10
328.76099929213524
20
67.004378347967361
30
0
10
329.86071929335594
20
67.004378347967361
30
0
10
330.08065566420555
20
67.224319487188552
30
0
0
LINE
5
417
100
AcDbEntity
8
INTERIOR_PROFILES
100
AcDbLine
10
328.76099929213524
20
67.004378347967361
30
0
11
325.85707431052595
21
67.004378347967361
31
0
0
LINE
5
418
100
AcDbEntity
8
INTERIOR_PROFILES
100
AcDbLine
10
325.85707431052595
20
67.004378347967361
30
0
11
325.85707431052595
21
59.233115225408767
31
0
0
LINE
5
419
100
AcDbEntity
8
INTERIOR_PROFILES
100
AcDbLine
10
325.85707431052595
20
59.233115225408767
30
0
11
338.29179152846336
21
59.233115225408767
31
0
0
SPLINE
5
420
100
AcDbEntity
8
INTERIOR_PROFILES
100
AcDbSpline
70
0
71
2
72
6
73
3
74
0
42
0.000000001
43
0.0000000001
44
0.0000000001
40
0
40
0
40
0
40
1
40
1
40
1
10
341.29765853285789
20
60.259507208440979
30
0
10
340.56453093886375
20
59.233115225408767
30
0
10
338.29179152846336
20
59.233115225408767
30
0
0
SPLINE
5
421
100
AcDbEntity
8
INTERIOR_PROFILES
100
AcDbSpline
70
0
71
2
72
6
73
3
74
0
42
0.000000001
43
0.0000000001
44
0.0000000001
40
0
40
0
40
0
40
1
40
1
40
1
10
342.10410460829735
20
64.365084677313064
30
0
10
342.10410460829735
20
61.285903959844802
30
0
10
341.29765853285789
20
60.259507208440979
30
0
0
SPLINE
5
422
100
AcDbEntity
8
INTERIOR_PROFILES
100
AcDbSpline
70
0
71
2
72
6
73
3
74
0
42
0.000000001
43
0.0000000001
44
0.0000000001
40
0
40
0
40
0
40
1
40
1
40
1
10
337.4120269715786
20
76.315224676702712
30
0
10
342.10410460829735
20
71.843088179205154
30
0
10
342.10410460829735
20
64.365084677313064
30
0
0
SPLINE
5
423
100
AcDbEntity
8
INTERIOR_PROFILES
100
AcDbSpline
70
0
71
2
72
6
73
3
74
0
42
0.000000001
43
0.0000000001
44
0.0000000001
40
0.054326681970539331
40
0.054326681970539331
40
0.054326681970539331
40
1
40
1
40
1
10
325.85707431052595
20
80.774166916833195
30
0
10
333.0441896760322
20
80.544409346293662
30
0
10
337.4120269715786
20
76.315224676702712
30
0
0
LINE
5
424
100
AcDbEntity
8
INTERIOR_PROFILES
100
AcDbLine
10
325.85707431052595
20
80.774166916833195
30
0
11
325.85707431052595
21
72.846146119956586
31
0
0
SPLINE
5
425
100
AcDbEntity
8
INTERIOR_PROFILES
100
AcDbSpline
70
0
71
2
72
6
73
3
74
0
42
0.000000001
43
0.0000000001
44
0.0000000001
40
0
40
0
40
0
40
1
40
1
40
1
10
219.87536773085594
20
51.315229445074294
30
0
10
220.60850486159325
20
51.095288305853103
30
0
10
220.97506865859032
20
51.095288305853103
30
0
0
SPLINE
5
426
100
AcDbEntity
8
INTERIOR_PROFILES
100
AcDbSpline
70
0
71
2
72
6
73
3
74
0
42
0.000000001
43
0.0000000001
44
0.0000000001
40
0
40
0
40
0
40
1
40
1
40
1
10
218.55572089552879
20
51.608484297369216
30
0
10
219.14223060011864
20
51.608484297369216
30
0
10
219.87536773085594
20
51.315229445074294
30
0
0
SPLINE
5
427
100
AcDbEntity
8
INTERIOR_PROFILES
100
AcDbSpline
70
0
71
2
72
6
73
3
74
0
42
0.000000001
43
0.0000000001
44
0.0000000001
40
0
40
0
40
0
40
1
40
1
40
1
10
215.03665789961815
20
47.502911596868728
30
0
10
215.03665789961815
20
51.608484297369216
30
0
10
218.55572089552879
20
51.608484297369216
30
0
0
SPLINE
5
428
100
AcDbEntity
8
INTERIOR_PROFILES
100
AcDbSpline
70
0
71
2
72
6
73
3
74
0
42
0.000000001
43
0.0000000001
44
0.0000000001
40
0
40
0
40
0
40
1
40
1
40
1
10
219.58211287856102
20
42.590888052557204
30
0
10
215.03665789961815
20
42.590888052557204
30
0
10
215.03665789961815
20
47.502911596868728
30
0
0
SPLINE
5
429
100
AcDbEntity
8
INTERIOR_PROFILES
100
AcDbSpline
70
0
71
2
72
6
73
3
74
0
42
0.000000001
43
0.0000000001
44
0.0000000001
40
0
40
0
40
0
40
1
40
1
40
1
10
223.9076267182827
20
42.957461386297439
30
0
10
220.38855895400047
20
42.590888052557204
30
0
10
219.58211287856102
20
42.590888052557204
30
0
0
SPLINE
5
430
100
AcDbEntity
8
INTERIOR_PROFILES
100
AcDbSpline
70
0
71
2
72
6
73
3
74
0
42
0.000000001
43
0.0000000001
44
0.0000000001
40
0
40
0
40
0
40
1
40
1
40
1
10
228.81965026259422
20
43.177397757147034
30
0
10
226.0337196290493
20
43.177397757147048
30
0
10
223.9076267182827
20
42.957461386297439
30
0
0
SPLINE
5
431
100
AcDbEntity
8
INTERIOR_PROFILES
100
AcDbSpline
70
0
71
2
72
6
73
3
74
0
42
0.000000001
43
0.0000000001
44
0.0000000001
40
0
40
0
40
0
40
1
40
1
40
1
10
233.43841895461082
20
42.957461386297425
30
0
10
231.60557135939598
20
43.177397757147048
30
0
10
228.81965026259422
20
43.177397757147034
30
0
0
SPLINE
5
432
100
AcDbEntity
8
INTERIOR_PROFILES
100
AcDbSpline
70
0
71
2
72
6
73
3
74
0
42
0.000000001
43
0.0000000001
44
0.0000000001
40
0
40
0
40
0
40
1
40
1
40
1
10
237.54398688673973
20
42.590888052557204
30
0
10
236.44427642226219
20
42.590888052557204
30
0
10
233.43841895461082
20
42.957461386297425
30
0
0
SPLINE
5
433
100
AcDbEntity
8
INTERIOR_PROFILES
100
AcDbSpline
70
0
71
2
72
6
73
3
74
0
42
0.000000001
43
0.0000000001
44
0.0000000001
40
0
40
0
40
0
40
1
40
1
40
1
10
240.98973616957664
20
43.983853369329665
30
0
10
239.59677085280418
20
42.590888052557204
30
0
10
237.54398688673973
20
42.590888052557204
30
0
0
SPLINE
5
434
100
AcDbEntity
8
INTERIOR_PROFILES
100
AcDbSpline
70
0
71
2
72
6
73
3
74
0
42
0.000000001
43
0.0000000001
44
0.0000000001
40
0
40
0
40
0
40
1
40
1
40
1
10
242.45601043105125
20
47.576220541570876
30
0
10
242.45601043105125
20
45.450127630804275
30
0
10
240.98973616957664
20
43.983853369329665
30
0
0
SPLINE
5
435
100
AcDbEntity
8
INTERIOR_PROFILES
100
AcDbSpline
70
0
71
2
72
6
73
3
74
0
42
0.000000001
43
0.0000000001
44
0.0000000001
40
0
40
0
40
0
40
1
40
1
40
1
10
241.28299102187157
20
50.288832693670486
30
0
10
242.45601043105125
20
49.189131765936111
30
0
10
242.45601043105125
20
47.576220541570876
30
0
0
SPLINE
5
436
100
AcDbEntity
8
INTERIOR_PROFILES
100
AcDbSpline
70
0
71
2
72
6
73
3
74
0
42
0.000000001
43
0.0000000001
44
0.0000000001
40
0
40
0
40
0
40
1
40
1
40
1
10
238.57037886977199
20
51.461856871221755
30
0
10
240.18328055739406
20
51.461856871221755
30
0
10
241.28299102187157
20
50.288832693670486
30
0
0
SPLINE
5
437
100
AcDbEntity
8
INTERIOR_PROFILES
100
AcDbSpline
70
0
71
2
72
6
73
3
74
0
42
0.000000001
43
0.0000000001
44
0.0000000001
40
0
40
0
40
0
40
1
40
1
40
1
10
236.81084975600245
20
51.168602018926819
30
0
10
237.98386916518214
20
51.461856871221755
30
0
10
238.57037886977199
20
51.461856871221755
30
0
0
SPLINE
5
438
100
AcDbEntity
8
INTERIOR_PROFILES
100
AcDbSpline
70
0
71
2
72
6
73
3
74
0
42
0.000000001
43
0.0000000001
44
0.0000000001
40
0
40
0
40
0
40
1
40
1
40
1
10
234.97800216078758
20
50.875342398260329
30
0
10
235.63783034682274
20
50.875342398260329
30
0
10
236.81084975600245
20
51.168602018926819
30
0
0
SPLINE
5
439
100
AcDbEntity
8
INTERIOR_PROFILES
100
AcDbSpline
70
0
71
2
72
6
73
3
74
0
42
0.000000001
43
0.0000000001
44
0.0000000001
40
0
40
0
40
0
40
1
40
1
40
1
10
233.95161017775536
20
51.315229445074294
30
0
10
234.24486503005028
20
50.875342398260329
30
0
10
234.97800216078758
20
50.875342398260329
30
0
0
SPLINE
5
440
100
AcDbEntity
8
INTERIOR_PROFILES
100
AcDbSpline
70
0
71
2
72
6
73
3
74
0
42
0.000000001
43
0.0000000001
44
0.0000000001
40
0
40
0
40
0
40
1
40
1
40
1
10
233.51172789931297
20
54.687660246465896
30
0
10
233.51172789931297
20
52.048366575811599
30
0
10
233.95161017775536
20
51.315229445074294
30
0
0
LINE
5
441
100
AcDbEntity
8
INTERIOR_PROFILES
100
AcDbLine
10
233.51172789931297
20
54.687660246465896
30
0
11
233.51172789931297
21
57.473586111639243
31
0
0
SPLINE
5
442
100
AcDbEntity
8
INTERIOR_PROFILES
100
AcDbSpline
70
0
71
2
72
6
73
3
74
0
42
0.000000001
43
0.0000000001
44
0.0000000001
40
0
40
0
40
0
40
1
40
1
40
1
10
234.83137473464012
20
67.077692061041091
30
0
10
233.51172789931297
20
62.898805647466872
30
0
10
233.51172789931297
20
57.473586111639236
30
0
0
SPLINE
5
443
100
AcDbEntity
8
INTERIOR_PROFILES
100
AcDbSpline
70
0
71
2
72
6
73
3
74
0
42
0.000000001
43
0.0000000001
44
0.0000000001
40
0
40
0
40
0
40
1
40
1
40
1
10
241.42961844801903
20
72.282970457647536
30
0
10
236.5175949037075
20
72.282970457647536
30
0
10
234.83137473464012
20
67.077692061041091
30
0
0
LINE
5
444
100
AcDbEntity
8
INTERIOR_PROFILES
100
AcDbLine
10
241.42961844801903
20
72.282970457647536
30
0
11
241.86950072646141
21
72.282970457647536
31
0
0
SPLINE
5
445
100
AcDbEntity
8
INTERIOR_PROFILES
100
AcDbSpline
70
0
71
2
72
6
73
3
74
0
42
0.000000001
43
0.0000000001
44
0.0000000001
40
0
40
0
40
0
40
1
40
1
40
1
10
240.91641768813133
20
69.423730879400466
30
0
10
240.91641768813133
20
70.450127630804275
30
0
10
241.86950072646141
20
72.282970457647536
30
0
0
SPLINE
5
446
100
AcDbEntity
8
INTERIOR_PROFILES
100
AcDbSpline
70
0
71
2
72
6
73
3
74
0
42
0.000000001
43
0.0000000001
44
0.0000000001
40
0
40
0
40
0
40
1
40
1
40
1
10
242.30938300490379
20
66.197922735784729
30
0
10
240.91641768813133
20
67.517574339483474
30
0
10
240.91641768813133
20
69.423730879400466
30
0
0
SPLINE
5
447
100
AcDbEntity
8
INTERIOR_PROFILES
100
AcDbSpline
70
0
71
2
72
6
73
3
74
0
42
0.000000001
43
0.0000000001
44
0.0000000001
40
0
40
0
40
0
40
1
40
1
40
1
10
245.82845076918605
20
64.878275900457595
30
0
10
243.77565726637843
20
64.878275900457595
30
0
10
242.30938300490379
20
66.197922735784729
30
0
0
SPLINE
5
448
100
AcDbEntity
8
INTERIOR_PROFILES
100
AcDbSpline
70
0
71
2
72
6
73
3
74
0
42
0.000000001
43
0.0000000001
44
0.0000000001
40
0
40
0
40
0
40
1
40
1
40
1
10
250.30058249831202
20
66.784432440374573
30
0
10
248.54105338454249
20
64.878275900457595
30
0
10
245.82845076918605
20
64.878275900457595
30
0
0
SPLINE
5
449
100
AcDbEntity
8
INTERIOR_PROFILES
100
AcDbSpline
70
0
71
2
72
6
73
3
74
0
42
0.000000001
43
0.0000000001
44
0.0000000001
40
0
40
0
40
0
40
1
40
1
40
1
10
252.06012114882469
20
71.769774466131423
30
0
10
252.06012114882472
20
68.763907461736892
30
0
10
250.30058249831202
20
66.784432440374573
30
0
0
SPLINE
5
450
100
AcDbEntity
8
INTERIOR_PROFILES
100
AcDbSpline
70
0
71
2
72
6
73
3
74
0
42
0.000000001
43
0.0000000001
44
0.0000000001
40
0
40
0
40
0
40
1
40
1
40
1
10
249.2741905152798
20
78.148072271917556
30
0
10
252.06012114882472
20
75.582087545965408
30
0
10
252.06012114882469
20
71.769774466131423
30
0
0
SPLINE
5
451
100
AcDbEntity
8
INTERIOR_PROFILES
100
AcDbSpline
70
0
71
2
72
6
73
3
74
0
42
0.000000001
43
0.0000000001
44
0.0000000001
40
0
40
0
40
0
40
1
40
1
40
1
10
242.52932891249657
20
80.787365942571853
30
0
10
246.56157836318016
20
80.787365942571853
30
0
10
249.2741905152798
20
78.148072271917556
30
0
0
SPLINE
5
452
100
AcDbEntity
8
INTERIOR_PROFILES
100
AcDbSpline
70
0
71
2
72
6
73
3
74
0
42
0.000000001
43
0.0000000001
44
0.0000000001
40
0
40
0
40
0
40
1
40
1
40
1
10
233.51172789931297
20
76.755106955145095
30
0
10
236.73753127455711
20
80.787365942571853
30
0
10
242.52932891249657
20
80.787365942571853
30
0
0
SPLINE
5
453
100
AcDbEntity
8
INTERIOR_PROFILES
100
AcDbSpline
70
0
71
2
72
6
73
3
74
0
42
0.000000001
43
0.0000000001
44
0.0000000001
40
0
40
0
40
0
40
1
40
1
40
1
10
231.09237059950829
20
71.256573706243728
30
0
10
232.11877211928368
20
74.995577841375564
30
0
10
233.51172789931297
20
76.755106955145095
30
0
0
LINE
5
454
100
AcDbEntity
8
INTERIOR_PROFILES
100
AcDbLine
10
231.09237059950829
20
71.256573706243728
30
0
11
231.09237059950829
21
77.488248854253982
31
0
0
SPLINE
5
455
100
AcDbEntity
8
INTERIOR_PROFILES
100
AcDbSpline
70
0
71
2
72
6
73
3
74
0
42
0.000000001
43
0.0000000001
44
0.0000000001
40
0
40
0
40
0
40
1
40
1
40
1
10
228.81965026259422
20
79.760973959539626
30
0
10
231.09237059950829
20
79.760973959539626
30
0
10
231.09237059950829
20
77.488248854253982
30
0
0
SPLINE
5
456
100
AcDbEntity
8
INTERIOR_PROFILES
100
AcDbSpline
70
0
71
2
72
6
73
3
74
0
42
0.000000001
43
0.0000000001
44
0.0000000001
40
0
40
0
40
0
40
1
40
1
40
1
10
226.32697448134422
20
79.467719107244704
30
0
10
228.01319465041161
20
79.760973959539626
30
0
10
228.81965026259422
20
79.760973959539626
30
0
0
SPLINE
5
457
100
AcDbEntity
8
INTERIOR_PROFILES
100
AcDbSpline
70
0
71
2
72
6
73
3
74
0
42
0.000000001
43
0.0000000001
44
0.0000000001
40
0
40
0
40
0
40
1
40
1
40
1
10
223.76099929213524
20
79.174464254949783
30
0
10
224.64076384902
20
79.174464254949783
30
0
10
226.32697448134422
20
79.467719107244704
30
0
0
SPLINE
5
458
100
AcDbEntity
8
INTERIOR_PROFILES
100
AcDbSpline
70
0
71
2
72
6
73
3
74
0
42
0.000000001
43
0.0000000001
44
0.0000000001
40
0
40
0
40
0
40
1
40
1
40
1
10
221.26832351088524
20
79.467719107244704
30
0
10
222.58797988295555
20
79.174464254949783
30
0
10
223.76099929213524
20
79.174464254949783
30
0
0
SPLINE
5
459
100
AcDbEntity
8
INTERIOR_PROFILES
100
AcDbSpline
70
0
71
2
72
6
73
3
74
0
42
0.000000001
43
0.0000000001
44
0.0000000001
40
0
40
0
40
0
40
1
40
1
40
1
10
219.21553954482079
20
79.760973959539626
30
0
10
219.94867667555809
20
79.760973959539626
30
0
10
221.26832351088524
20
79.467719107244704
30
0
0
SPLINE
5
460
100
AcDbEntity
8
INTERIOR_PROFILES
100
AcDbSpline
70
0
71
2
72
6
73
3
74
0
42
0.000000001
43
0.0000000001
44
0.0000000001
40
0
40
0
40
0
40
1
40
1
40
1
10
216.20967730879784
20
78.368013411138747
30
0
10
217.38270148634911
20
79.760973959539626
30
0
10
219.21553954482079
20
79.760973959539626
30
0
0
SPLINE
5
461
100
AcDbEntity
8
INTERIOR_PROFILES
100
AcDbSpline
70
0
71
2
72
6
73
3
74
0
42
0.000000001
43
0.0000000001
44
0.0000000001
40
0
40
0
40
0
40
1
40
1
40
1
10
215.03665789961815
20
74.775641470525954
30
0
10
215.03665789961815
20
76.975052862737869
30
0
10
216.20967730879784
20
78.368013411138747
30
0
0
SPLINE
5
462
100
AcDbEntity
8
INTERIOR_PROFILES
100
AcDbSpline
70
0
71
2
72
6
73
3
74
0
42
0.000000001
43
0.0000000001
44
0.0000000001
40
0
40
0
40
0
40
1
40
1
40
1
10
218.55572089552879
20
70.743382483099197
30
0
10
215.03665789961815
20
70.743382483099197
30
0
10
215.03665789961815
20
74.775641470525954
30
0
0
SPLINE
5
463
100
AcDbEntity
8
INTERIOR_PROFILES
100
AcDbSpline
70
0
71
2
72
6
73
3
74
0
42
0.000000001
43
0.0000000001
44
0.0000000001
40
0
40
0
40
0
40
1
40
1
40
1
10
219.80204924941063
20
70.963318853948806
30
0
10
218.99560317397118
20
70.743382483099182
30
0
10
218.55572089552879
20
70.743382483099197
30
0
0
SPLINE
5
464
100
AcDbEntity
8
INTERIOR_PROFILES
100
AcDbSpline
70
0
71
2
72
6
73
3
74
0
42
0.000000001
43
0.0000000001
44
0.0000000001
40
0
40
0
40
0
40
1
40
1
40
1
10
220.97506865859032
20
71.256573706243714
30
0
10
220.68181380629539
20
71.256573706243728
30
0
10
219.80204924941063
20
70.963318853948806
30
0
0
SPLINE
5
465
100
AcDbEntity
8
INTERIOR_PROFILES
100
AcDbSpline
70
0
71
2
72
6
73
3
74
0
42
0.000000001
43
0.0000000001
44
0.0000000001
40
0
40
0
40
0
40
1
40
1
40
1
10
222.22140654921532
20
67.077692061041091
30
0
10
222.22140654921532
20
71.256573706243728
30
0
10
220.97506865859032
20
71.256573706243714
30
0
0
LINE
5
466
100
AcDbEntity
8
INTERIOR_PROFILES
100
AcDbLine
10
222.22140654921532
20
67.077692061041091
30
0
11
222.22140654921532
21
55.200856237982009
31
0
0
SPLINE
5
467
100
AcDbEntity
8
INTERIOR_PROFILES
100
AcDbSpline
70
0
71
2
72
6
73
3
74
0
42
0.000000001
43
0.0000000001
44
0.0000000001
40
0
40
0
40
0
40
1
40
1
40
1
10
220.97506865859032
20
51.095288305853103
30
0
10
222.22140654921532
20
51.095288305853103
30
0
10
222.22140654921532
20
55.200856237982009
30
0
0
LWPOLYLINE
5
468
100
AcDbEntity
8
INTERIOR_PROFILES
100
AcDbPolyline
90
5
70
1
43
0.0
10
249.65742106740225
20
40.695752039526312
10
256.58562429767767
20
36.695752039526226
10
256.58562429767761
20
28.815752039526195
10
242.72921783712658
20
28.815752039526195
10
242.72921783712667
20
36.69575203952639
0
LWPOLYLINE
5
469
100
AcDbEntity
8
INTERIOR_PROFILES
100
AcDbPolyline
90
5
70
1
43
0.0
10
35.269217837126661
20
36.69575203952639
10
42.197421067402203
20
40.695752039526312
10
49.125624297677675
20
36.695752039526226
10
49.125624297677604
20
28.815752039526203
10
35.269217837126554
20
28.815752039526203
0
LWPOLYLINE
5
470
100
AcDbEntity
8
INTERIOR_PROFILES
100
AcDbPolyline
90
5
70
1
43
0.0
10
268.51742106740204
20
157.9757520395263
10
261.58921783712657
20
161.97575203952638
10
261.58921783712668
20
169.85575203952618
10
275.44562429767768
20
169.85575203952618
10
275.44562429767763
20
161.97575203952624
0
LWPOLYLINE
5
471
100
AcDbEntity
8
INTERIOR_PROFILES
100
AcDbPolyline
90
4
70
1
43
0.0
10
4.480000000000004
20
91.337240986955948
10
4.480000000000004
20
107.33426309209676
10
11.40562429767769
20
103.33575203952623
10
11.405624297677583
20
95.335752039526227
0
LWPOLYLINE
5
472
100
AcDbEntity
8
INTERIOR_PROFILES
100
AcDbPolyline
90
5
70
1
43
0.0
10
237.7256242976776
20
161.97575203952624
10
230.79742106740207
20
157.9757520395263
10
223.8692178371266
20
161.97575203952641
10
223.86921783712666
20
169.85575203952618
10
237.72562429767771
20
169.85575203952618
0
LWPOLYLINE
5
473
100
AcDbEntity
8
INTERIOR_PROFILES
100
AcDbPolyline
90
5
70
1
43
0.0
10
381.67742106740207
20
157.9757520395263
10
374.74921783712659
20
161.97575203952638
10
374.74921783712671
20
169.85575203952618
10
388.60562429767765
20
169.85575203952621
10
388.60562429767759
20
161.97575203952624
0
LWPOLYLINE
5
474
100
AcDbEntity
8
INTERIOR_PROFILES
100
AcDbPolyline
90
6
70
1
43
0.0
10
23.337421067402246
20
140.65575203952631
10
24.758064299821889
20
139.8355432868664
10
24.758064299821854
20
125.47596079218629
10
23.337421067402069
20
124.65575203952632
10
16.409217837126562
20
128.65575203952636
10
16.409217837126668
20
136.65575203952642
0
LWPOLYLINE
5
475
100
AcDbEntity
8
INTERIOR_PROFILES
100
AcDbPolyline
90
5
70
1
43
0.0
10
337.02921783712662
20
161.97575203952641
10
337.02921783712668
20
169.85575203952621
10
350.88562429767774
20
169.85575203952618
10
350.88562429767762
20
161.97575203952624
10
343.95742106740204
20
157.9757520395263
0
LWPOLYLINE
5
476
100
AcDbEntity
8
INTERIOR_PROFILES
100
AcDbPolyline
90
5
70
1
43
0.0
10
124.56562429767772
20
36.695752039526226
10
124.56562429767759
20
28.815752039526195
10
110.70921783712657
20
28.815752039526195
10
110.70921783712669
20
36.69575203952639
10
117.63742106740224
20
40.695752039526312
0
SPLINE
5
477
100
AcDbEntity
8
INTERIOR_PROFILES
100
AcDbSpline
70
0
71
3
72
11
73
7
74
0
42
0.000000001
43
0.0000000001
44
0.0000000001
40
-0.99846326328882129
40
-0.99846326328882129
40
-0.99846326328882129
40
-0.99846326328882129
40
-0.54569614235725783
40
-0.54569614235725783
40
-0.54569614235725783
40
-0
40
-0
40
-0
40
-0
10
363.28258830489182
20
37.993066580645689
30
0
10
364.22198981853876
20
37.878567858783896
30
0
10
365.03916944013463
20
37.78826218711071
30
0
10
365.75065479036874
20
37.721752187724178
30
0
10
366.60817026138545
20
37.641591221047214
30
0
10
367.28062933342414
20
37.590888052557197
30
0
10
367.98386916518211
20
37.590888052557197
30
0
0
SPLINE
5
478
100
AcDbEntity
8
INTERIOR_PROFILES
100
AcDbSpline
70
0
71
3
72
8
73
4
74
0
42
0.000000001
43
0.0000000001
44
0.0000000001
40
-1
40
-1
40
-1
40
-1
40
-5.9737440935406555e-09
40
-5.9737440935406555e-09
40
-5.9737440935406555e-09
40
-5.9737440935406555e-09
10
359.25952300429344
20
38.177397757147041
30
0
10
360.98523443871488
20
38.177397757147048
30
0
10
362.35823414497924
20
38.103995417591136
30
0
10
363.28258937334965
20
37.993075484676922
30
0
0
SPLINE
5
479
100
AcDbEntity
8
INTERIOR_PROFILES
100
AcDbSpline
70
0
71
3
72
8
73
4
74
0
42
0.000000001
43
0.0000000001
44
0.0000000001
40
-0.16085150199654913
40
-0.16085150199654913
40
-0.16085150199654913
40
-0.16085150199654913
40
-0
40
-0
40
-0
40
-0
10
358.44623801149169
20
38.172048325519306
30
0
10
358.71080145631095
20
38.175592528581745
30
0
10
358.98194191662685
20
38.177397757147041
30
0
10
359.25952300429344
20
38.177397757147041
30
0
0
LINE
5
480
100
AcDbEntity
8
INTERIOR_PROFILES
100
AcDbLine
10
358.44623801149169
20
38.172048325519306
30
0
11
355.88921783712669
21
36.69575203952639
31
0
0
LINE
5
481
100
AcDbEntity
8
INTERIOR_PROFILES
100
AcDbLine
10
355.88921783712669
20
36.69575203952639
30
0
11
355.88921783712658
21
28.815752039526185
31
0
0
LINE
5
482
100
AcDbEntity
8
INTERIOR_PROFILES
100
AcDbLine
10
355.88921783712658
20
28.815752039526185
30
0
11
369.74562429767758
21
28.815752039526188
31
0
0
LINE
5
483
100
AcDbEntity
8
INTERIOR_PROFILES
100
AcDbLine
10
369.74562429767758
20
28.815752039526188
30
0
11
369.74562429767775
21
36.695752039526226
31
0
0
LINE
5
484
100
AcDbEntity
8
INTERIOR_PROFILES
100
AcDbLine
10
369.74562429767775
20
36.695752039526226
30
0
11
368.19174691260184
21
37.592883566087451
31
0
0
SPLINE
5
485
100
AcDbEntity
8
INTERIOR_PROFILES
100
AcDbSpline
70
0
71
3
72
8
73
4
74
0
42
0.000000001
43
0.0000000001
44
0.0000000001
40
-1
40
-1
40
-1
40
-1
40
-0.9723274800129833
40
-0.9723274800129833
40
-0.9723274800129833
40
-0.9723274800129833
10
367.98386916518211
20
37.590888052557197
30
0
10
368.05303604490166
20
37.590888052557197
30
0
10
368.12233508446531
20
37.591549398340462
30
0
10
368.19174691260184
20
37.592883566087451
30
0
0
LWPOLYLINE
5
486
100
AcDbEntity
8
INTERIOR_PROFILES
100
AcDbPolyline
90
4
70
1
43
0.0
10
400.5200000000001
20
169.85575203952621
10
400.51999999999998
20
157.98581009748045
10
393.60921783712661
20
161.97575203952638
10
393.60921783712672
20
169.85575203952621
0
LINE
5
487
100
AcDbEntity
8
INTERIOR_PROFILES
100
AcDbLine
10
212.63583000257961
20
40.292525452797193
30
0
11
211.93742106740223
21
40.695752039526312
31
0
0
LINE
5
488
100
AcDbEntity
8
INTERIOR_PROFILES
100
AcDbLine
10
211.93742106740223
20
40.695752039526312
30
0
11
205.0092178371267
21
36.695752039526397
31
0
0
LINE
5
489
100
AcDbEntity
8
INTERIOR_PROFILES
100
AcDbLine
10
205.0092178371267
20
36.695752039526397
30
0
11
205.00921783712656
21
28.815752039526199
31
0
0
LINE
5
490
100
AcDbEntity
8
INTERIOR_PROFILES
100
AcDbLine
10
205.00921783712656
20
28.815752039526199
30
0
11
218.86562429767764
21
28.815752039526199
31
0
0
LINE
5
491
100
AcDbEntity
8
INTERIOR_PROFILES
100
AcDbLine
10
218.86562429767764
20
28.815752039526199
30
0
11
218.8656242976777
21
36.695752039526226
31
0
0
LINE
5
492
100
AcDbEntity
8
INTERIOR_PROFILES
100
AcDbLine
10
218.8656242976777
20
36.695752039526226
30
0
11
216.70842207238391
21
37.941213324996092
31
0
0
SPLINE
5
493
100
AcDbEntity
8
INTERIOR_PROFILES
100
AcDbSpline
70
0
71
3
72
11
73
7
74
0
42
0.000000001
43
0.0000000001
44
0.0000000001
40
-0.48876416130528599
40
-0.48876416130528599
40
-0.48876416130528599
40
-0.48876416130528599
40
-0.29701252399775696
40
-0.29701252399775696
40
-0.29701252399775696
40
-0.19509438653283326
40
-0.19509438653283326
40
-0.19509438653283326
40
-0.19509438653283326
10
212.63583000257967
20
40.292525452797115
30
0
10
213.38008014919177
20
39.531796576754125
30
0
10
214.27179491750132
20
38.902539916830975
30
0
10
215.20632782114629
20
38.475857397640844
30
0
10
215.70304249997025
20
38.249070871823825
30
0
10
216.205141454103
20
38.073721982354336
30
0
10
216.70842207238388
20
37.941213324996092
30
0
0
LWPOLYLINE
5
494
100
AcDbEntity
8
INTERIOR_PROFILES
100
AcDbPolyline
90
6
70
1
43
0.0
10
13.905624297677974
20
41.025879058448389
10
6.9774210674024317
20
45.025879058448382
10
6.9774210674023962
20
53.025879058448389
10
13.905624297677939
20
57.025879058448403
10
20.83382752795341
20
53.025879058448417
10
20.833827527953446
20
45.025879058448417
0
LINE
5
495
100
AcDbEntity
8
INTERIOR_PROFILES
100
AcDbLine
10
282.33524893416711
20
37.784652601102664
30
0
11
280.44921783712664
21
36.69575203952639
31
0
0
LINE
5
496
100
AcDbEntity
8
INTERIOR_PROFILES
100
AcDbLine
10
280.44921783712664
20
36.69575203952639
30
0
11
280.44921783712658
21
28.815752039526195
31
0
0
LINE
5
497
100
AcDbEntity
8
INTERIOR_PROFILES
100
AcDbLine
10
280.44921783712658
20
28.815752039526195
30
0
11
294.30562429767758
21
28.815752039526199
31
0
0
LINE
5
498
100
AcDbEntity
8
INTERIOR_PROFILES
100
AcDbLine
10
294.30562429767758
20
28.815752039526199
30
0
11
294.3056242976777
21
36.695752039526226
31
0
0
LINE
5
499
100
AcDbEntity
8
INTERIOR_PROFILES
100
AcDbLine
10
294.3056242976777
20
36.695752039526226
30
0
11
289.36988810373299
21
39.545400659749305
31
0
0
SPLINE
5
500
100
AcDbEntity
8
INTERIOR_PROFILES
100
AcDbSpline
70
0
71
3
72
11
73
7
74
0
42
0.000000001
43
0.0000000001
44
0.0000000001
40
-0.99906479956465843
40
-0.99906479956465843
40
-0.99906479956465843
40
-0.99906479956465843
40
-0.74927756018701142
40
-0.74927756018701142
40
-0.74927756018701142
40
-0.57330206832775621
40
-0.57330206832775621
40
-0.57330206832775621
40
-0.57330206832775621
10
282.90381194509837
20
37.748360608505848
30
0
10
284.2120062909263
20
37.659916047663202
30
0
10
285.58165728377372
20
37.817974001211297
30
0
10
286.86234953389874
20
38.257003055371975
30
0
10
287.76459918122896
20
38.566299694939794
30
0
10
288.6064984553276
20
39.009759298596613
30
0
10
289.36988810373299
20
39.545400659749305
30
0
0
LINE
5
501
100
AcDbEntity
8
INTERIOR_PROFILES
100
AcDbLine
10
282.90381194509837
20
37.748360608505848
30
0
11
282.33524893416711
21
37.784652601102664
31
0
0
LINE
5
502
100
AcDbEntity
8
INTERIOR_PROFILES
100
AcDbLine
10
129.56921783712667
20
36.695752039526397
30
0
11
129.56921783712656
21
28.815752039526199
31
0
0
LINE
5
503
100
AcDbEntity
8
INTERIOR_PROFILES
100
AcDbLine
10
129.56921783712656
20
28.815752039526199
30
0
11
143.42562429767759
21
28.815752039526188
31
0
0
LINE
5
504
100
AcDbEntity
8
INTERIOR_PROFILES
100
AcDbLine
10
143.42562429767759
20
28.815752039526188
30
0
11
143.4256242976777
21
36.695752039526219
31
0
0
LINE
5
505
100
AcDbEntity
8
INTERIOR_PROFILES
100
AcDbLine
10
143.4256242976777
20
36.695752039526219
30
0
11
142.59903217905119
21
37.172985221725227
31
0
0
SPLINE
5
506
100
AcDbEntity
8
INTERIOR_PROFILES
100
AcDbSpline
70
0
71
3
72
8
73
4
74
0
42
0.000000001
43
0.0000000001
44
0.0000000001
40
-1
40
-1
40
-1
40
-1
40
-0.94075981401144781
40
-0.94075981401144781
40
-0.94075981401144781
40
-0.94075981401144781
10
141.86950072646141
20
37.151005774114815
30
0
10
142.11103048773083
20
37.151005774114822
30
0
10
142.35410844801146
20
37.157890398683932
30
0
10
142.59903217905119
20
37.172985221725227
30
0
0
SPLINE
5
507
100
AcDbEntity
8
INTERIOR_PROFILES
100
AcDbSpline
70
0
71
3
72
11
73
7
74
0
42
0.000000001
43
0.0000000001
44
0.0000000001
40
-0.57075628441405413
40
-0.57075628441405413
40
-0.57075628441405413
40
-0.57075628441405413
40
-0.32234033633156001
40
-0.32234033633156001
40
-0.32234033633156001
40
-0
40
-0
40
-0
40
-0
10
134.96565851097003
20
39.811388515234967
30
0
10
135.81718113450464
20
38.892927885322244
30
0
10
136.88184444131971
20
38.227108658983077
30
0
10
137.92166286804155
20
37.824095783034664
30
0
10
139.27091368700246
20
37.301153085587472
30
0
10
140.58100328377924
20
37.151005774114815
30
0
10
141.86950072646141
20
37.151005774114815
30
0
0
LINE
5
508
100
AcDbEntity
8
INTERIOR_PROFILES
100
AcDbLine
10
134.96565851097003
20
39.811388515234967
30
0
11
129.56921783712667
21
36.695752039526397
31
0
0
LWPOLYLINE
5
509
100
AcDbEntity
8
INTERIOR_PROFILES
100
AcDbPolyline
90
5
70
1
43
0.0
10
242.72921783712667
20
169.85575203952618
10
256.58562429767767
20
169.85575203952618
10
256.58562429767761
20
161.97575203952624
10
249.65742106740205
20
157.9757520395263
10
242.72921783712658
20
161.97575203952638
0
LWPOLYLINE
5
510
100
AcDbEntity
8
INTERIOR_PROFILES
100
AcDbPolyline
90
4
70
1
43
0.0
10
4.4800000000000395
20
124.65724098695596
10
4.4800000000000395
20
140.65426309209676
10
11.40562429767769
20
136.65575203952625
10
11.405624297677583
20
128.65575203952625
0
LWPOLYLINE
5
511
100
AcDbEntity
8
INTERIOR_PROFILES
100
AcDbPolyline
90
4
70
1
43
0.0
10
400.51999999999998
20
107.32569398157207
10
400.51999999999998
20
91.345810097480452
10
393.60921783712655
20
95.335752039526383
10
393.60921783712672
20
103.33575203952641
0
LWPOLYLINE
5
512
100
AcDbEntity
8
INTERIOR_PROFILES
100
AcDbPolyline
90
6
70
1
43
0.0
10
23.337421067402211
20
74.015752039526305
10
30.265624297677682
20
70.015752039526234
10
30.265624297677576
20
62.01575203952622
10
23.337421067402033
20
58.015752039526298
10
16.409217837126562
20
62.01575203952639
10
16.409217837126668
20
70.015752039526404
0
LWPOLYLINE
5
513
100
AcDbEntity
8
INTERIOR_PROFILES
100
AcDbPolyline
90
4
70
1
43
0.0
10
393.60921783712672
20
70.01575203952639
10
400.51999999999998
20
74.005693981572065
10
400.51999999999998
20
58.025810097480452
10
393.60921783712661
20
62.015752039526376
0
LWPOLYLINE
5
514
100
AcDbEntity
8
INTERIOR_PROFILES
100
AcDbPolyline
90
6
70
1
43
0.0
10
58.553827527953466
20
45.02587905844841
10
51.625624297677959
20
41.025879058448396
10
44.697421067402452
20
45.025879058448375
10
44.697421067402416
20
53.025879058448382
10
51.625624297677959
20
57.025879058448403
10
58.55382752795343
20
53.025879058448417
0
SPLINE
5
515
100
AcDbEntity
8
INTERIOR_PROFILES
100
AcDbSpline
70
0
71
3
72
8
73
4
74
0
42
0.000000001
43
0.0000000001
44
0.0000000001
40
-0.33111172661289862
40
-0.33111172661289862
40
-0.33111172661289862
40
-0.33111172661289862
40
-0.028151351192183448
40
-0.028151351192183448
40
-0.028151351192183448
40
-0.028151351192183448
10
78.204548044925758
20
106.34682433891189
30
0
10
79.547737375333853
20
106.07975887465133
30
0
10
80.939895811877477
20
105.94351393576233
30
0
10
82.365631403025048
20
105.92227714322158
30
0
0
LINE
5
516
100
AcDbEntity
8
INTERIOR_PROFILES
100
AcDbLine
10
78.204548044925758
20
106.34682433891189
30
0
11
72.989217837126688
21
103.33575203952641
31
0
0
LINE
5
517
100
AcDbEntity
8
INTERIOR_PROFILES
100
AcDbLine
10
72.989217837126688
20
103.33575203952641
30
0
11
72.989217837126574
21
95.335752039526383
31
0
0
LINE
5
518
100
AcDbEntity
8
INTERIOR_PROFILES
100
AcDbLine
10
72.989217837126574
20
95.335752039526383
30
0
11
79.917421067402017
21
91.335752039526312
31
0
0
LINE
5
519
100
AcDbEntity
8
INTERIOR_PROFILES
100
AcDbLine
10
79.917421067402017
20
91.335752039526312
30
0
11
86.845624297677588
21
95.335752039526227
31
0
0
LINE
5
520
100
AcDbEntity
8
INTERIOR_PROFILES
100
AcDbLine
10
86.845624297677588
20
95.335752039526227
30
0
11
86.845624297677688
21
103.33575203952623
31
0
0
LINE
5
521
100
AcDbEntity
8
INTERIOR_PROFILES
100
AcDbLine
10
86.845624297677688
20
103.33575203952623
30
0
11
82.365631403025048
21
105.92227714322158
31
0
0
LWPOLYLINE
5
522
100
AcDbEntity
8
INTERIOR_PROFILES
100
AcDbPolyline
90
6
70
1
43
0.0
10
82.417421067402444
20
45.025879058448382
10
82.417421067402444
20
53.025879058448389
10
89.345624297677944
20
57.025879058448396
10
96.273827527953443
20
53.025879058448417
10
96.273827527953443
20
45.025879058448417
10
89.345624297677972
20
41.025879058448389
0
SPLINE
5
523
100
AcDbEntity
8
INTERIOR_PROFILES
100
AcDbSpline
70
0
71
3
72
8
73
4
74
0
42
0.000000001
43
0.0000000001
44
0.0000000001
40
-0.33641216528060136
40
-0.33641216528060136
40
-0.33641216528060136
40
-0.33641216528060136
40
-0.12191422037331372
40
-0.12191422037331372
40
-0.12191422037331372
40
-0.12191422037331372
10
97.755383401268361
20
106.74567831786194
30
0
10
98.820584487157248
20
106.37480675156752
30
0
10
99.927385848230799
20
106.14092802855937
30
0
10
101.05615982733164
20
106.02012160306816
30
0
0
LINE
5
524
100
AcDbEntity
8
INTERIOR_PROFILES
100
AcDbLine
10
97.755383401268361
20
106.74567831786194
30
0
11
91.849217837126702
21
103.33575203952641
31
0
0
LINE
5
525
100
AcDbEntity
8
INTERIOR_PROFILES
100
AcDbLine
10
91.849217837126702
20
103.33575203952641
30
0
11
91.849217837126602
21
95.335752039526383
31
0
0
LINE
5
526
100
AcDbEntity
8
INTERIOR_PROFILES
100
AcDbLine
10
91.849217837126602
20
95.335752039526383
30
0
11
98.777421067402031
21
91.335752039526298
31
0
0
LINE
5
527
100
AcDbEntity
8
INTERIOR_PROFILES
100
AcDbLine
10
98.777421067402031
20
91.335752039526298
30
0
11
105.70562429767762
21
95.335752039526227
31
0
0
LINE
5
528
100
AcDbEntity
8
INTERIOR_PROFILES
100
AcDbLine
10
105.70562429767762
20
95.335752039526227
30
0
11
105.7056242976777
21
103.33575203952623
31
0
0
LINE
5
529
100
AcDbEntity
8
INTERIOR_PROFILES
100
AcDbLine
10
105.7056242976777
20
103.33575203952623
30
0
11
101.05615982733163
21
106.02012160306816
31
0
0
LINE
5
530
100
AcDbEntity
8
INTERIOR_PROFILES
100
AcDbLine
10
289.87742106740245
20
119.6658790584484
30
0
11
290.655954995098
21
120.11536583117672
31
0
0
SPLINE
5
531
100
AcDbEntity
8
INTERIOR_PROFILES
100
AcDbSpline
70
0
71
2
72
6
73
3
74
0
42
0.000000001
43
0.0000000001
44
0.0000000001
40
0
40
0
40
0
40
0.70778423007837732
40
0.70778423007837732
40
0.70778423007837732
10
292.67595425248146
20
131.00730469760722
30
0
10
292.67595425248146
20
124.6247922823153
30
0
10
290.655954995098
20
120.11536583117672
30
0
0
SPLINE
5
532
100
AcDbEntity
8
INTERIOR_PROFILES
100
AcDbSpline
70
0
71
2
72
6
73
3
74
0
42
0.000000001
43
0.0000000001
44
0.0000000001
40
0
40
0
40
0
40
1
40
1
40
1
10
288.71700420975685
20
144.86360600528545
30
0
10
292.67595425248152
20
139.73164609012431
30
0
10
292.67595425248146
20
131.00730469760722
30
0
0
SPLINE
5
533
100
AcDbEntity
8
INTERIOR_PROFILES
100
AcDbSpline
70
0
71
2
72
6
73
3
74
0
42
0.000000001
43
0.0000000001
44
0.0000000001
40
0
40
0
40
0
40
1
40
1
40
1
10
278.08651104569441
20
150.06888440189189
30
0
10
284.75805416703224
20
150.06888440189189
30
0
10
288.71700420975685
20
144.86360600528545
30
0
0
SPLINE
5
534
100
AcDbEntity
8
INTERIOR_PROFILES
100
AcDbSpline
70
0
71
2
72
6
73
3
74
0
42
0.000000001
43
0.0000000001
44
0.0000000001
40
0.83811005272949202
40
0.83811005272949202
40
0.83811005272949202
40
1
40
1
40
1
10
275.93848567852876
20
149.91516985624372
30
0
10
276.98271623137782
20
150.06888440189189
30
0
10
278.08651104569441
20
150.06888440189189
30
0
0
LINE
5
535
100
AcDbEntity
8
INTERIOR_PROFILES
100
AcDbLine
10
275.93848567852876
20
149.91516985624372
30
0
11
275.93848567852871
21
140.64138046554953
31
0
0
SPLINE
5
536
100
AcDbEntity
8
INTERIOR_PROFILES
100
AcDbSpline
70
0
71
2
72
6
73
3
74
0
42
0.000000001
43
0.0000000001
44
0.0000000001
40
0
40
0
40
0
40
0.79262200016715856
40
0.79262200016715856
40
0.79262200016715856
10
279.18621197342878
20
138.04542592105693
30
0
10
277.9077981707452
20
140.19550199073188
30
0
10
275.93848567852871
20
140.64138046554953
30
0
0
SPLINE
5
537
100
AcDbEntity
8
INTERIOR_PROFILES
100
AcDbSpline
70
0
71
2
72
6
73
3
74
0
42
0.000000001
43
0.0000000001
44
0.0000000001
40
0
40
0
40
0
40
1
40
1
40
1
10
280.87244167923933
20
130.78736355838603
30
0
10
280.87244167923933
20
135.33281376895732
30
0
10
279.18621197342878
20
138.04542592105693
30
0
0
SPLINE
5
538
100
AcDbEntity
8
INTERIOR_PROFILES
100
AcDbSpline
70
0
71
2
72
6
73
3
74
0
42
0.000000001
43
0.0000000001
44
0.0000000001
40
0
40
0
40
0
40
1
40
1
40
1
10
279.18621197342878
20
123.45598271426982
30
0
10
280.87244167923933
20
126.16859486636943
30
0
10
280.87244167923933
20
130.78736355838603
30
0
0
SPLINE
5
539
100
AcDbEntity
8
INTERIOR_PROFILES
100
AcDbSpline
70
0
71
2
72
6
73
3
74
0
42
0.000000001
43
0.0000000001
44
0.0000000001
40
0.23020965614381628
40
0.23020965614381628
40
0.23020965614381628
40
1
40
1
40
1
10
275.93848567852871
20
120.8871339891853
30
0
10
277.88818331095797
20
121.36784374360302
30
0
10
279.18621197342878
20
123.45598271426982
30
0
0
LINE
5
540
100
AcDbEntity
8
INTERIOR_PROFILES
100
AcDbLine
10
275.93848567852871
20
120.8871339891853
30
0
11
275.93848567852871
21
111.56093981211225
31
0
0
SPLINE
5
541
100
AcDbEntity
8
INTERIOR_PROFILES
100
AcDbSpline
70
0
71
2
72
6
73
3
74
0
42
0.000000001
43
0.0000000001
44
0.0000000001
40
0
40
0
40
0
40
0.35371398490124428
40
0.35371398490124428
40
0.35371398490124428
10
277.79325619339949
20
111.43252423343486
30
0
10
276.8337673395888
20
111.43252423343486
30
0
10
275.93848567852876
20
111.56093981211225
30
0
0
SPLINE
5
542
100
AcDbEntity
8
INTERIOR_PROFILES
100
AcDbSpline
70
0
71
2
72
6
73
3
74
0
42
0.000000001
43
0.0000000001
44
0.0000000001
40
0
40
0
40
0
40
1
40
1
40
1
10
288.64368572831154
20
116.71111634311504
30
0
10
284.61143627762794
20
111.43252423343486
30
0
10
277.79325619339949
20
111.43252423343486
30
0
0
SPLINE
5
543
100
AcDbEntity
8
INTERIOR_PROFILES
100
AcDbSpline
70
0
71
2
72
6
73
3
74
0
42
0.000000001
43
0.0000000001
44
0.0000000001
40
0.83308728809647337
40
0.83308728809647337
40
0.83308728809647337
40
1
40
1
40
1
10
289.8774210673638
20
118.57741269828165
30
0
10
289.31672260280396
20
117.59218046717433
30
0
10
288.64368572831154
20
116.71111634311504
30
0
0
LINE
5
544
100
AcDbEntity
8
INTERIOR_PROFILES
100
AcDbLine
10
289.8774210673638
20
118.57741269828165
30
0
11
289.87742106740245
21
119.6658790584484
31
0
0
SPLINE
5
545
100
AcDbEntity
8
INTERIOR_PROFILES
100
AcDbSpline
70
0
71
2
72
6
73
3
74
0
42
0.000000001
43
0.0000000001
44
0.0000000001
40
0
40
0
40
0
40
1
40
1
40
1
10
306.32699355483055
20
60.992644339178284
30
0
10
306.32699355483055
20
69.863617926214417
30
0
10
311.45896300673485
20
75.288832693670486
30
0
0
SPLINE
5
546
100
AcDbEntity
8
INTERIOR_PROFILES
100
AcDbSpline
70
0
71
2
72
6
73
3
74
0
42
0.000000001
43
0.0000000001
44
0.0000000001
40
0
40
0
40
0
40
1
40
1
40
1
10
311.53226241469383
20
46.916401892278884
30
0
10
306.32699355483055
20
52.19499400195906
30
0
10
306.32699355483055
20
60.992644339178284
30
0
0
SPLINE
5
547
100
AcDbEntity
8
INTERIOR_PROFILES
100
AcDbSpline
70
0
71
2
72
6
73
3
74
0
42
0.000000001
43
0.0000000001
44
0.0000000001
40
0
40
0
40
0
40
1
40
1
40
1
10
325.46187743544579
20
41.637805014227112
30
0
10
316.73755034804344
20
41.637805014227126
30
0
10
311.53226241469383
20
46.916401892278884
30
0
0
SPLINE
5
548
100
AcDbEntity
8
INTERIOR_PROFILES
100
AcDbSpline
70
0
71
2
72
6
73
3
74
0
42
0.000000001
43
0.0000000001
44
0.0000000001
40
0
40
0
40
0
40
1
40
1
40
1
10
336.75219878554344
20
44.570363073919509
30
0
10
332.13343963027
20
41.637805014227112
30
0
10
325.46187743544579
20
41.637805014227112
30
0
0
SPLINE
5
549
100
AcDbEntity
8
INTERIOR_PROFILES
100
AcDbSpline
70
0
71
2
72
6
73
3
74
0
42
0.000000001
43
0.0000000001
44
0.0000000001
40
0
40
0
40
0
40
1
40
1
40
1
10
341.44429549574852
20
51.828425436590393
30
0
10
341.44429549574852
20
47.576220541570862
30
0
10
336.75219878554344
20
44.570363073919509
30
0
0
SPLINE
5
550
100
AcDbEntity
8
INTERIOR_PROFILES
100
AcDbSpline
70
0
71
2
72
6
73
3
74
0
42
0.000000001
43
0.0000000001
44
0.0000000001
40
0
40
0
40
0
40
1
40
1
40
1
10
340.05133971571922
20
54.980919867132386
30
0
10
341.44429549574852
20
53.734581976507386
30
0
10
341.44429549574852
20
51.828425436590393
30
0
0
SPLINE
5
551
100
AcDbEntity
8
INTERIOR_PROFILES
100
AcDbSpline
70
0
71
2
72
6
73
3
74
0
42
0.000000001
43
0.0000000001
44
0.0000000001
40
0
40
0
40
0
40
1
40
1
40
1
10
336.53226241469383
20
56.227252989385818
30
0
10
338.73168334364891
20
56.227252989385804
30
0
10
340.05133971571922
20
54.980919867132386
30
0
0
SPLINE
5
552
100
AcDbEntity
8
INTERIOR_PROFILES
100
AcDbSpline
70
0
71
2
72
6
73
3
74
0
42
0.000000001
43
0.0000000001
44
0.0000000001
40
0
40
0
40
0
40
1
40
1
40
1
10
331.69356688857079
20
53.881209402654861
30
0
10
333.89296874403954
20
56.227252989385818
30
0
10
336.53226241469383
20
56.227252989385818
30
0
0
SPLINE
5
553
100
AcDbEntity
8
INTERIOR_PROFILES
100
AcDbSpline
70
0
71
2
72
6
73
3
74
0
42
0.000000001
43
0.0000000001
44
0.0000000001
40
0
40
0
40
0
40
1
40
1
40
1
10
325.3885780274868
20
50.508778601263245
30
0
10
328.46774443984032
20
50.508778601263259
30
0
10
331.69356688857079
20
53.881209402654861
30
0
0
SPLINE
5
554
100
AcDbEntity
8
INTERIOR_PROFILES
100
AcDbSpline
70
0
71
2
72
6
73
3
74
0
42
0.000000001
43
0.0000000001
44
0.0000000001
40
0
40
0
40
0
40
1
40
1
40
1
10
320.4032264649868
20
52.561562567327712
30
0
10
322.38271102309227
20
50.508778601263259
30
0
10
325.3885780274868
20
50.508778601263245
30
0
0
SPLINE
5
555
100
AcDbEntity
8
INTERIOR_PROFILES
100
AcDbSpline
70
0
71
2
72
6
73
3
74
0
42
0.000000001
43
0.0000000001
44
0.0000000001
40
0
40
0
40
0
40
1
40
1
40
1
10
318.42376098036766
20
57.693527250860427
30
0
10
318.42376098036772
20
54.614346533392165
30
0
10
320.4032264649868
20
52.561562567327712
30
0
0
SPLINE
5
556
100
AcDbEntity
8
INTERIOR_PROFILES
100
AcDbSpline
70
0
71
2
72
6
73
3
74
0
42
0.000000001
43
0.0000000001
44
0.0000000001
40
0
40
0
40
0
40
1
40
1
40
1
10
318.71701583266258
20
58.939860373113831
30
0
10
318.42376098036766
20
58.719919233892654
30
0
10
318.42376098036766
20
57.693527250860427
30
0
0
SPLINE
5
557
100
AcDbEntity
8
INTERIOR_PROFILES
100
AcDbSpline
70
0
71
2
72
6
73
3
74
0
42
0.000000001
43
0.0000000001
44
0.0000000001
40
0
40
0
40
0
40
1
40
1
40
1
10
320.4032264649868
20
59.233115225408767
30
0
10
319.08358916640282
20
59.233115225408767
30
0
10
318.71701583266258
20
58.939860373113831
30
0
0
LINE
5
558
100
AcDbEntity
8
INTERIOR_PROFILES
100
AcDbLine
10
320.4032264649868
20
59.233115225408767
30
0
11
323.35707431052595
21
59.233115225408753
31
0
0
LINE
5
559
100
AcDbEntity
8
INTERIOR_PROFILES
100
AcDbLine
10
323.35707431052595
20
59.233115225408753
30
0
11
323.35707431052595
21
67.004378347967361
31
0
0
LINE
5
560
100
AcDbEntity
8
INTERIOR_PROFILES
100
AcDbLine
10
323.35707431052595
20
67.004378347967361
30
0
11
320.54986342787743
21
67.004378347967361
31
0
0
SPLINE
5
561
100
AcDbEntity
8
INTERIOR_PROFILES
100
AcDbSpline
70
0
71
2
72
6
73
3
74
0
42
0.000000001
43
0.0000000001
44
0.0000000001
40
0
40
0
40
0
40
1
40
1
40
1
10
319.0102706849575
20
67.297633200262283
30
0
10
319.23020705580711
20
67.004378347967361
30
0
10
320.54986342787743
20
67.004378347967361
30
0
0
SPLINE
5
562
100
AcDbEntity
8
INTERIOR_PROFILES
100
AcDbSpline
70
0
71
2
72
6
73
3
74
0
42
0.000000001
43
0.0000000001
44
0.0000000001
40
0
40
0
40
0
40
1
40
1
40
1
10
318.79033431410789
20
68.030770330999587
30
0
10
318.79033431410789
20
67.590888052557204
30
0
10
319.0102706849575
20
67.297633200262283
30
0
0
SPLINE
5
563
100
AcDbEntity
8
INTERIOR_PROFILES
100
AcDbSpline
70
0
71
2
72
6
73
3
74
0
42
0.000000001
43
0.0000000001
44
0.0000000001
40
0
40
0
40
0
40
1
40
1
40
1
10
319.96335372328758
20
70.67006400165387
30
0
10
318.79033431410795
20
69.203789740179275
30
0
10
318.79033431410789
20
68.030770330999587
30
0
0
SPLINE
5
564
100
AcDbEntity
8
INTERIOR_PROFILES
100
AcDbSpline
70
0
71
2
72
6
73
3
74
0
42
0.000000001
43
0.0000000001
44
0.0000000001
40
0.24513824450049088
40
0.24513824450049088
40
0.24513824450049088
40
1
40
1
40
1
10
323.35707431052606
20
72.806219266930455
30
0
10
321.34690027657456
20
72.385660863858959
30
0
10
319.96335372328758
20
70.67006400165387
30
0
0
LINE
5
565
100
AcDbEntity
8
INTERIOR_PROFILES
100
AcDbLine
10
323.35707431052606
20
72.806219266930455
30
0
11
323.35707431052595
21
80.730664479318577
31
0
0
SPLINE
5
566
100
AcDbEntity
8
INTERIOR_PROFILES
100
AcDbSpline
70
0
71
2
72
6
73
3
74
0
42
0.000000001
43
0.0000000001
44
0.0000000001
40
0
40
0
40
0
40
0.89845145491615652
40
0.89845145491615652
40
0.89845145491615652
10
311.45896300673485
20
75.288832693670486
30
0
10
316.13564438710875
20
80.228997891050767
30
0
10
323.35707431052595
20
80.730664479318577
30
0
0
SPLINE
5
567
100
AcDbEntity
8
INTERIOR_PROFILES
100
AcDbSpline
70
0
71
2
72
6
73
3
74
0
42
0.000000001
43
0.0000000001
44
0.0000000001
40
0
40
0
40
0
40
1
40
1
40
1
10
255.8724416792393
20
99.555693178747362
30
0
10
254.99267712235454
20
99.482374697302049
30
0
10
254.55278530716899
20
99.482374697302049
30
0
0
SPLINE
5
568
100
AcDbEntity
8
INTERIOR_PROFILES
100
AcDbSpline
70
0
71
2
72
6
73
3
74
0
42
0.000000001
43
0.0000000001
44
0.0000000001
40
0
40
0
40
0
40
1
40
1
40
1
10
262.104112058878
20
100.14220288333721
30
0
10
260.71113720536238
20
100.14220288333721
30
0
10
255.8724416792393
20
99.555693178747362
30
0
0
SPLINE
5
569
100
AcDbEntity
8
INTERIOR_PROFILES
100
AcDbSpline
70
0
71
2
72
6
73
3
74
0
42
0.000000001
43
0.0000000001
44
0.0000000001
40
0
40
0
40
0
40
1
40
1
40
1
10
268.77565518021589
20
99.775629549596971
30
0
10
265.40323391556745
20
100.14220288333721
30
0
10
262.104112058878
20
100.14220288333721
30
0
0
SPLINE
5
570
100
AcDbEntity
8
INTERIOR_PROFILES
100
AcDbSpline
70
0
71
2
72
6
73
3
74
0
42
0.000000001
43
0.0000000001
44
0.0000000001
40
0
40
0
40
0
40
1
40
1
40
1
10
272.80792370438581
20
99.482374697302049
30
0
10
271.4882673323155
20
99.482374697302049
30
0
10
268.77565518021589
20
99.775629549596971
30
0
0
SPLINE
5
571
100
AcDbEntity
8
INTERIOR_PROFILES
100
AcDbSpline
70
0
71
2
72
6
73
3
74
0
42
0.000000001
43
0.0000000001
44
0.0000000001
40
0
40
0
40
0
40
1
40
1
40
1
10
277.35336437821394
20
103.88120701846904
30
0
10
277.35336437821394
20
99.482374697302049
30
0
10
272.80792370438581
20
99.482374697302049
30
0
0
SPLINE
5
572
100
AcDbEntity
8
INTERIOR_PROFILES
100
AcDbSpline
70
0
71
2
72
6
73
3
74
0
42
0.000000001
43
0.0000000001
44
0.0000000001
40
0
40
0
40
0
40
1
40
1
40
1
10
273.9809431135655
20
107.69352009830303
30
0
10
277.35336437821394
20
107.69352009830303
30
0
10
277.35336437821394
20
103.88120701846904
30
0
0
SPLINE
5
573
100
AcDbEntity
8
INTERIOR_PROFILES
100
AcDbSpline
70
0
71
2
72
6
73
3
74
0
42
0.000000001
43
0.0000000001
44
0.0000000001
40
0
40
0
40
0
40
1
40
1
40
1
10
272.07477703690535
20
107.54689267215556
30
0
10
273.39443340897566
20
107.69352009830303
30
0
10
273.9809431135655
20
107.69352009830303
30
0
0
SPLINE
5
574
100
AcDbEntity
8
INTERIOR_PROFILES
100
AcDbSpline
70
0
71
2
72
6
73
3
74
0
42
0.000000001
43
0.0000000001
44
0.0000000001
40
0
40
0
40
0
40
1
40
1
40
1
10
270.38856640458113
20
107.32695630130596
30
0
10
271.12169399857527
20
107.32695630130596
30
0
10
272.07477703690535
20
107.54689267215556
30
0
0
SPLINE
5
575
100
AcDbEntity
8
INTERIOR_PROFILES
100
AcDbSpline
70
0
71
2
72
6
73
3
74
0
42
0.000000001
43
0.0000000001
44
0.0000000001
40
0
40
0
40
0
40
1
40
1
40
1
10
268.6290372908116
20
109.59967663822002
30
0
10
268.6290372908116
20
107.32695630130596
30
0
10
270.38856640458113
20
107.32695630130596
30
0
0
LINE
5
576
100
AcDbEntity
8
INTERIOR_PROFILES
100
AcDbLine
10
268.6290372908116
20
109.59967663822002
30
0
11
268.6290372908116
21
115.24484208164043
31
0
0
SPLINE
5
577
100
AcDbEntity
8
INTERIOR_PROFILES
100
AcDbSpline
70
0
71
2
72
6
73
3
74
0
42
0.000000001
43
0.0000000001
44
0.0000000001
40
0
40
0
40
0
40
1
40
1
40
1
10
272.8812231123448
20
112.45891621646709
30
0
10
271.4882673323155
20
113.11874440250224
30
0
10
268.6290372908116
20
115.24484208164043
30
0
0
SPLINE
5
578
100
AcDbEntity
8
INTERIOR_PROFILES
100
AcDbSpline
70
0
71
2
72
6
73
3
74
0
42
0.000000001
43
0.0000000001
44
0.0000000001
40
0.87513502748354444
40
0.87513502748354444
40
0.87513502748354444
40
1
40
1
40
1
10
273.43848567852541
20
112.21859814862908
30
0
10
273.15585374619087
20
112.33075580971466
30
0
10
272.8812231123448
20
112.45891621646709
30
0
0
LINE
5
579
100
AcDbEntity
8
INTERIOR_PROFILES
100
AcDbLine
10
273.43848567852541
20
112.21859814862908
30
0
11
273.43848567852871
21
120.90959636601457
31
0
0
SPLINE
5
580
100
AcDbEntity
8
INTERIOR_PROFILES
100
AcDbSpline
70
0
71
2
72
6
73
3
74
0
42
0.000000001
43
0.0000000001
44
0.0000000001
40
0
40
0
40
0
40
0.75245764293251127
40
0.75245764293251127
40
0.75245764293251127
10
270.38856640458113
20
123.45598271426982
30
0
10
271.60219943073577
20
121.41486055610852
30
0
10
273.43848567852871
20
120.90959636601457
30
0
0
SPLINE
5
581
100
AcDbEntity
8
INTERIOR_PROFILES
100
AcDbSpline
70
0
71
2
72
6
73
3
74
0
42
0.000000001
43
0.0000000001
44
0.0000000001
40
0
40
0
40
0
40
1
40
1
40
1
10
268.77565518021589
20
130.78736355838603
30
0
10
268.77565518021589
20
126.16859486636943
30
0
10
270.38856640458113
20
123.45598271426982
30
0
0
SPLINE
5
582
100
AcDbEntity
8
INTERIOR_PROFILES
100
AcDbSpline
70
0
71
2
72
6
73
3
74
0
42
0.000000001
43
0.0000000001
44
0.0000000001
40
0
40
0
40
0
40
1
40
1
40
1
10
270.38856640458113
20
138.11874440250224
30
0
10
268.77565518021589
20
135.47944119510478
30
0
10
268.77565518021589
20
130.78736355838603
30
0
0
SPLINE
5
583
100
AcDbEntity
8
INTERIOR_PROFILES
100
AcDbSpline
70
0
71
2
72
6
73
3
74
0
42
0.000000001
43
0.0000000001
44
0.0000000001
40
0.26388233617746926
40
0.26388233617746926
40
0.26388233617746926
40
1
40
1
40
1
10
273.43848567852871
20
140.57425379501996
30
0
10
271.57584480668379
20
140.06157509348589
30
0
10
270.38856640458113
20
138.11874440250224
30
0
0
LINE
5
584
100
AcDbEntity
8
INTERIOR_PROFILES
100
AcDbLine
10
273.43848567852871
20
140.57425379501996
30
0
11
273.43848567852876
21
149.29693399123448
31
0
0
SPLINE
5
585
100
AcDbEntity
8
INTERIOR_PROFILES
100
AcDbSpline
70
0
71
2
72
6
73
3
74
0
42
0.000000001
43
0.0000000001
44
0.0000000001
40
0
40
0
40
0
40
0.63720850266649753
40
0.63720850266649753
40
0.63720850266649753
10
266.72287121415144
20
144.20378735599346
30
0
10
269.61927681366848
20
147.94107706260411
30
0
10
273.43848567852876
20
149.29693399123448
30
0
0
LINE
5
586
100
AcDbEntity
8
INTERIOR_PROFILES
100
AcDbLine
10
266.72287121415144
20
144.20378735599346
30
0
11
266.72287121415144
21
146.40319874820537
31
0
0
SPLINE
5
587
100
AcDbEntity
8
INTERIOR_PROFILES
100
AcDbSpline
70
0
71
2
72
6
73
3
74
0
42
0.000000001
43
0.0000000001
44
0.0000000001
40
0
40
0
40
0
40
1
40
1
40
1
10
264.8900236189366
20
148.96918347415752
30
0
10
266.72287121415144
20
148.96918347415752
30
0
10
266.72287121415144
20
146.40319874820537
30
0
0
SPLINE
5
588
100
AcDbEntity
8
INTERIOR_PROFILES
100
AcDbSpline
70
0
71
2
72
6
73
3
74
0
42
0.000000001
43
0.0000000001
44
0.0000000001
40
0
40
0
40
0
40
1
40
1
40
1
10
263.4970678389073
20
148.82255604801006
30
0
10
264.45015087723738
20
148.96918347415752
30
0
10
264.8900236189366
20
148.96918347415752
30
0
0
SPLINE
5
589
100
AcDbEntity
8
INTERIOR_PROFILES
100
AcDbSpline
70
0
71
2
72
6
73
3
74
0
42
0.000000001
43
0.0000000001
44
0.0000000001
40
0
40
0
40
0
40
1
40
1
40
1
10
259.53811779618269
20
148.52930119571514
30
0
10
261.66422024369245
20
148.52930119571514
30
0
10
263.4970678389073
20
148.82255604801006
30
0
0
SPLINE
5
590
100
AcDbEntity
8
INTERIOR_PROFILES
100
AcDbSpline
70
0
71
2
72
6
73
3
74
0
42
0.000000001
43
0.0000000001
44
0.0000000001
40
0
40
0
40
0
40
1
40
1
40
1
10
257.41201534867292
20
148.6759286218626
30
0
10
257.92522564530378
20
148.52930119571514
30
0
10
259.53811779618269
20
148.52930119571514
30
0
0
LINE
5
591
100
AcDbEntity
8
INTERIOR_PROFILES
100
AcDbLine
10
257.41201534867292
20
148.6759286218626
30
0
11
254.84604015946391
21
149.04249241885967
31
0
0
LINE
5
592
100
AcDbEntity
8
INTERIOR_PROFILES
100
AcDbLine
10
254.84604015946391
20
149.04249241885967
30
0
11
254.33284893631938
21
149.04249241885967
31
0
0
SPLINE
5
593
100
AcDbEntity
8
INTERIOR_PROFILES
100
AcDbSpline
70
0
71
2
72
6
73
3
74
0
42
0.000000001
43
0.0000000001
44
0.0000000001
40
0
40
0
40
0
40
1
40
1
40
1
10
251.32698193192485
20
147.64953187045879
30
0
10
252.50000134110454
20
149.04249241885967
30
0
10
254.33284893631938
20
149.04249241885967
30
0
0
SPLINE
5
594
100
AcDbEntity
8
INTERIOR_PROFILES
100
AcDbSpline
70
0
71
2
72
6
73
3
74
0
42
0.000000001
43
0.0000000001
44
0.0000000001
40
0
40
0
40
0
40
1
40
1
40
1
10
250.15396252274516
20
144.13046887454814
30
0
10
250.15396252274516
20
146.25657132205791
30
0
10
251.32698193192485
20
147.64953187045879
30
0
0
SPLINE
5
595
100
AcDbEntity
8
INTERIOR_PROFILES
100
AcDbSpline
70
0
71
2
72
6
73
3
74
0
42
0.000000001
43
0.0000000001
44
0.0000000001
40
0
40
0
40
0
40
1
40
1
40
1
10
253.67302075028422
20
140.02490094241924
30
0
10
250.15396252274516
20
140.02490094241924
30
0
10
250.15396252274516
20
144.13046887454814
30
0
0
SPLINE
5
596
100
AcDbEntity
8
INTERIOR_PROFILES
100
AcDbSpline
70
0
71
2
72
6
73
3
74
0
42
0.000000001
43
0.0000000001
44
0.0000000001
40
0
40
0
40
0
40
1
40
1
40
1
10
254.84604015946391
20
140.17152836856673
30
0
10
254.11291256546977
20
140.02490094241924
30
0
10
253.67302075028422
20
140.02490094241924
30
0
0
SPLINE
5
597
100
AcDbEntity
8
INTERIOR_PROFILES
100
AcDbSpline
70
0
71
2
72
6
73
3
74
0
42
0.000000001
43
0.0000000001
44
0.0000000001
40
0
40
0
40
0
40
1
40
1
40
1
10
256.16569653153425
20
140.53809693393535
30
0
10
255.94574108719829
20
140.53809693393535
30
0
10
254.84604015946391
20
140.17152836856673
30
0
0
SPLINE
5
598
100
AcDbEntity
8
INTERIOR_PROFILES
100
AcDbSpline
70
0
71
2
72
6
73
3
74
0
42
0.000000001
43
0.0000000001
44
0.0000000001
40
0
40
0
40
0
40
1
40
1
40
1
10
257.41201534867292
20
136.35921052036113
30
0
10
257.41201534867292
20
140.53809693393535
30
0
10
256.16569653153425
20
140.53809693393535
30
0
0
LINE
5
599
100
AcDbEntity
8
INTERIOR_PROFILES
100
AcDbLine
10
257.41201534867292
20
136.35921052036113
30
0
11
257.41201534867292
21
112.09234288272685
31
0
0
SPLINE
5
600
100
AcDbEntity
8
INTERIOR_PROFILES
100
AcDbSpline
70
0
71
2
72
6
73
3
74
0
42
0.000000001
43
0.0000000001
44
0.0000000001
40
0
40
0
40
0
40
1
40
1
40
1
10
256.09237805008894
20
107.9134660058958
30
0
10
257.41201534867292
20
107.9134660058958
30
0
10
257.41201534867292
20
112.09234288272685
30
0
0
SPLINE
5
601
100
AcDbEntity
8
INTERIOR_PROFILES
100
AcDbSpline
70
0
71
2
72
6
73
3
74
0
42
0.000000001
43
0.0000000001
44
0.0000000001
40
0
40
0
40
0
40
1
40
1
40
1
10
254.84604015946391
20
108.20672085819072
30
0
10
256.16569653153425
20
107.9134660058958
30
0
10
256.09237805008894
20
107.9134660058958
30
0
0
SPLINE
5
602
100
AcDbEntity
8
INTERIOR_PROFILES
100
AcDbSpline
70
0
71
2
72
6
73
3
74
0
42
0.000000001
43
0.0000000001
44
0.0000000001
40
0
40
0
40
0
40
1
40
1
40
1
10
253.74633923172954
20
108.42665722904033
30
0
10
254.33284893631938
20
108.42665722904033
30
0
10
254.84604015946391
20
108.20672085819072
30
0
0
SPLINE
5
603
100
AcDbEntity
8
INTERIOR_PROFILES
100
AcDbSpline
70
0
71
2
72
6
73
3
74
0
42
0.000000001
43
0.0000000001
44
0.0000000001
40
0
40
0
40
0
40
1
40
1
40
1
10
250.15396252274516
20
104.32108929691142
30
0
10
250.15396252274516
20
108.42665722904033
30
0
10
253.74633923172954
20
108.42665722904033
30
0
0
SPLINE
5
604
100
AcDbEntity
8
INTERIOR_PROFILES
100
AcDbSpline
70
0
71
2
72
6
73
3
74
0
42
0.000000001
43
0.0000000001
44
0.0000000001
40
0
40
0
40
0
40
1
40
1
40
1
10
251.40030041337016
20
100.87534001407451
30
0
10
250.15396252274516
20
102.19498684940166
30
0
10
250.15396252274516
20
104.32108929691142
30
0
0
SPLINE
5
605
100
AcDbEntity
8
INTERIOR_PROFILES
100
AcDbSpline
70
0
71
2
72
6
73
3
74
0
42
0.000000001
43
0.0000000001
44
0.0000000001
40
0
40
0
40
0
40
1
40
1
40
1
10
254.55278530716899
20
99.482374697302049
30
0
10
252.64661923050883
20
99.482374697302049
30
0
10
251.40030041337016
20
100.87534001407451
30
0
0
SPLINE
5
606
100
AcDbEntity
8
INTERIOR_PROFILES
100
AcDbSpline
70
0
71
2
72
6
73
3
74
0
42
0.000000001
43
0.0000000001
44
0.0000000001
40
0
40
0
40
0
40
1
40
1
40
1
10
146.54691830277446
20
127.0483594232542
30
0
10
148.08651104569438
20
125.58208516177959
30
0
10
148.08651104569438
20
123.23604157504863
30
0
0
SPLINE
5
607
100
AcDbEntity
8
INTERIOR_PROFILES
100
AcDbSpline
70
0
71
2
72
6
73
3
74
0
42
0.000000001
43
0.0000000001
44
0.0000000001
40
0
40
0
40
0
40
1
40
1
40
1
10
142.51466885209086
20
128.58794739780254
30
0
10
145.0073350965977
20
128.58794739780254
30
0
10
146.54691830277446
20
127.0483594232542
30
0
0
SPLINE
5
608
100
AcDbEntity
8
INTERIOR_PROFILES
100
AcDbSpline
70
0
71
2
72
6
73
3
74
0
42
0.000000001
43
0.0000000001
44
0.0000000001
40
0
40
0
40
0
40
1
40
1
40
1
10
139.28885594010353
20
127.70818284091777
30
0
10
140.31524792313579
20
128.58794739780254
30
0
10
142.51466885209086
20
128.58794739780254
30
0
0
SPLINE
5
609
100
AcDbEntity
8
INTERIOR_PROFILES
100
AcDbSpline
70
0
71
2
72
6
73
3
74
0
42
0.000000001
43
0.0000000001
44
0.0000000001
40
0
40
0
40
0
40
1
40
1
40
1
10
137.52932682633403
20
124.62900212344951
30
0
10
138.55571880936625
20
127.0483594232542
30
0
10
139.28885594010353
20
127.70818284091777
30
0
0
SPLINE
5
610
100
AcDbEntity
8
INTERIOR_PROFILES
100
AcDbSpline
70
0
71
2
72
6
73
3
74
0
42
0.000000001
43
0.0000000001
44
0.0000000001
40
0
40
0
40
0
40
1
40
1
40
1
10
132.25072994828227
20
120.7433753305418
30
0
10
135.84310665726665
20
120.7433753305418
30
0
10
137.52932682633403
20
124.62900212344951
30
0
0
SPLINE
5
611
100
AcDbEntity
8
INTERIOR_PROFILES
100
AcDbSpline
70
0
71
2
72
6
73
3
74
0
42
0.000000001
43
0.0000000001
44
0.0000000001
40
0
40
0
40
0
40
1
40
1
40
1
10
126.60556927323343
20
123.52929642734355
30
0
10
128.73167172074321
20
120.7433753305418
30
0
10
132.25072994828227
20
120.7433753305418
30
0
0
SPLINE
5
612
100
AcDbEntity
8
INTERIOR_PROFILES
100
AcDbSpline
70
0
71
2
72
6
73
3
74
0
42
0.000000001
43
0.0000000001
44
0.0000000001
40
0
40
0
40
0
40
1
40
1
40
1
10
124.47947636246683
20
130.93399098453349
30
0
10
124.47947636246683
20
126.31522229251689
30
0
10
126.60556927323343
20
123.52929642734355
30
0
0
SPLINE
5
613
100
AcDbEntity
8
INTERIOR_PROFILES
100
AcDbSpline
70
0
71
2
72
6
73
3
74
0
42
0.000000001
43
0.0000000001
44
0.0000000001
40
0
40
0
40
0
40
1
40
1
40
1
10
126.45894184708597
20
138.04542592105693
30
0
10
124.47947636246683
20
135.40613225040264
30
0
10
124.47947636246683
20
130.93399098453349
30
0
0
SPLINE
5
614
100
AcDbEntity
8
INTERIOR_PROFILES
100
AcDbSpline
70
0
71
2
72
6
73
3
74
0
42
0.000000001
43
0.0000000001
44
0.0000000001
40
0
40
0
40
0
40
1
40
1
40
1
10
131.73753872513774
20
140.75803807315654
30
0
10
128.5117353498936
20
140.75803807315654
30
0
10
126.45894184708597
20
138.04542592105693
30
0
0
SPLINE
5
615
100
AcDbEntity
8
INTERIOR_PROFILES
100
AcDbSpline
70
0
71
2
72
6
73
3
74
0
42
0.000000001
43
0.0000000001
44
0.0000000001
40
0
40
0
40
0
40
1
40
1
40
1
10
135.47654286026957
20
139.58501866397685
30
0
10
133.79032269120219
20
140.75803807315654
30
0
10
131.73753872513774
20
140.75803807315654
30
0
0
SPLINE
5
616
100
AcDbEntity
8
INTERIOR_PROFILES
100
AcDbSpline
70
0
71
2
72
6
73
3
74
0
42
0.000000001
43
0.0000000001
44
0.0000000001
40
0
40
0
40
0
40
1
40
1
40
1
10
134.74340572953227
20
137.38560250339336
30
0
10
134.74340572953224
20
138.48530819949931
30
0
10
135.47654286026957
20
139.58501866397685
30
0
0
SPLINE
5
617
100
AcDbEntity
8
INTERIOR_PROFILES
100
AcDbSpline
70
0
71
2
72
6
73
3
74
0
42
0.000000001
43
0.0000000001
44
0.0000000001
40
0
40
0
40
0
40
1
40
1
40
1
10
136.28299847245219
20
134.01316693363017
30
0
10
134.74340572953227
20
135.33281376895732
30
0
10
134.74340572953227
20
137.38560250339336
30
0
0
SPLINE
5
618
100
AcDbEntity
8
INTERIOR_PROFILES
100
AcDbSpline
70
0
71
2
72
6
73
3
74
0
42
0.000000001
43
0.0000000001
44
0.0000000001
40
0
40
0
40
0
40
1
40
1
40
1
10
140.31524792313579
20
132.76683381137676
30
0
10
137.82258167862895
20
132.76683381137676
30
0
10
136.28299847245219
20
134.01316693363017
30
0
0
SPLINE
5
619
100
AcDbEntity
8
INTERIOR_PROFILES
100
AcDbSpline
70
0
71
2
72
6
73
3
74
0
42
0.000000001
43
0.0000000001
44
0.0000000001
40
0
40
0
40
0
40
1
40
1
40
1
10
145.22727146744731
20
134.52636769351787
30
0
10
143.32111492753032
20
132.76683381137676
30
0
10
140.31524792313579
20
132.76683381137676
30
0
0
SPLINE
5
620
100
AcDbEntity
8
INTERIOR_PROFILES
100
AcDbSpline
70
0
71
2
72
6
73
3
74
0
42
0.000000001
43
0.0000000001
44
0.0000000001
40
0
40
0
40
0
40
1
40
1
40
1
10
147.1334280073643
20
139.29176381168193
30
0
10
147.1334280073643
20
136.35921052036113
30
0
10
145.22727146744731
20
134.52636769351787
30
0
0
SPLINE
5
621
100
AcDbEntity
8
INTERIOR_PROFILES
100
AcDbSpline
70
0
71
2
72
6
73
3
74
0
42
0.000000001
43
0.0000000001
44
0.0000000001
40
0
40
0
40
0
40
1
40
1
40
1
10
142.88123264908793
20
146.98970845279521
30
0
10
147.13342800736427
20
143.98384144840068
30
0
10
147.1334280073643
20
139.29176381168193
30
0
0
SPLINE
5
622
100
AcDbEntity
8
INTERIOR_PROFILES
100
AcDbSpline
70
0
71
2
72
6
73
3
74
0
42
0.000000001
43
0.0000000001
44
0.0000000001
40
0
40
0
40
0
40
1
40
1
40
1
10
132.25072994828227
20
150.06888440189189
30
0
10
138.70234623551372
20
150.06888440189189
30
0
10
142.88123264908793
20
146.98970845279521
30
0
0
SPLINE
5
623
100
AcDbEntity
8
INTERIOR_PROFILES
100
AcDbSpline
70
0
71
2
72
6
73
3
74
0
42
0.000000001
43
0.0000000001
44
0.0000000001
40
0
40
0
40
0
40
1
40
1
40
1
10
118.02786007523538
20
144.7902970605833
30
0
10
123.30645695328714
20
150.06888440189189
30
0
10
132.25072994828227
20
150.06888440189189
30
0
0
SPLINE
5
624
100
AcDbEntity
8
INTERIOR_PROFILES
100
AcDbSpline
70
0
71
2
72
6
73
3
74
0
42
0.000000001
43
0.0000000001
44
0.0000000001
40
0
40
0
40
0
40
1
40
1
40
1
10
112.74927273392679
20
130.49410870609111
30
0
10
112.74927273392679
20
139.51170018253154
30
0
10
118.02786007523538
20
144.7902970605833
30
0
0
SPLINE
5
625
100
AcDbEntity
8
INTERIOR_PROFILES
100
AcDbSpline
70
0
71
2
72
6
73
3
74
0
42
0.000000001
43
0.0000000001
44
0.0000000001
40
0
40
0
40
0
40
1
40
1
40
1
10
117.88123264908792
20
116.19792035159892
30
0
10
112.74927273392679
20
121.54982617435283
30
0
10
112.74927273392679
20
130.49410870609111
30
0
0
SPLINE
5
626
100
AcDbEntity
8
INTERIOR_PROFILES
100
AcDbSpline
70
0
71
2
72
6
73
3
74
0
42
0.000000001
43
0.0000000001
44
0.0000000001
40
0
40
0
40
0
40
1
40
1
40
1
10
131.66422024369243
20
110.91932347354717
30
0
10
123.01319256424907
20
110.91932347354717
30
0
10
117.88123264908792
20
116.19792035159892
30
0
0
SPLINE
5
627
100
AcDbEntity
8
INTERIOR_PROFILES
100
AcDbSpline
70
0
71
2
72
6
73
3
74
0
42
0.000000001
43
0.0000000001
44
0.0000000001
40
0
40
0
40
0
40
1
40
1
40
1
10
143.24779644608498
20
114.58501389560527
30
0
10
138.40909138321879
20
110.91932347354717
30
0
10
131.66422024369243
20
110.91932347354717
30
0
0
SPLINE
5
628
100
AcDbEntity
8
INTERIOR_PROFILES
100
AcDbSpline
70
0
71
2
72
6
73
3
74
0
42
0.000000001
43
0.0000000001
44
0.0000000001
40
0
40
0
40
0
40
1
40
1
40
1
10
148.08651104569438
20
123.23604157504863
30
0
10
148.08651104569438
20
118.25070431766338
30
0
10
143.24779644608498
20
114.58501389560527
30
0
0
LWPOLYLINE
5
629
100
AcDbEntity
8
INTERIOR_PROFILES
100
AcDbPolyline
90
6
70
1
43
0.0
10
101.27742106740244
20
78.345879058448389
10
101.27742106740243
20
86.345879058448389
10
108.20562429767793
20
90.345879058448418
10
115.13382752795344
20
86.345879058448418
10
115.13382752795346
20
78.345879058448418
10
108.20562429767796
20
74.345879058448403
0
SPLINE
5
630
100
AcDbEntity
8
INTERIOR_PROFILES
100
AcDbSpline
70
0
71
3
72
11
73
7
74
0
42
0.000000001
43
0.0000000001
44
0.0000000001
40
-0.91950686570097995
40
-0.91950686570097995
40
-0.91950686570097995
40
-0.91950686570097995
40
-0.86153764115788511
40
-0.86153764115788511
40
-0.86153764115788511
40
-0.61316067456225709
40
-0.61316067456225709
40
-0.61316067456225709
40
-0.61316067456225709
10
284.87382752795338
20
84.712812618623033
30
0
10
284.61408053373736
20
84.688783984536002
30
0
10
284.35252815090826
20
84.655124706197341
30
0
10
284.08904197781766
20
84.610425800571306
30
0
10
282.96009990677993
20
84.418907306455708
30
0
10
281.77057453502908
20
84.007669895468112
30
0
10
280.70381030440331
20
83.297264321336939
30
0
0
LINE
5
631
100
AcDbEntity
8
INTERIOR_PROFILES
100
AcDbLine
10
284.87382752795338
20
84.712812618623033
30
0
11
284.87382752795344
21
86.345879058448418
31
0
0
LINE
5
632
100
AcDbEntity
8
INTERIOR_PROFILES
100
AcDbLine
10
284.87382752795344
20
86.345879058448418
30
0
11
277.94562429767791
21
90.345879058448418
31
0
0
LINE
5
633
100
AcDbEntity
8
INTERIOR_PROFILES
100
AcDbLine
10
277.94562429767791
20
90.345879058448418
30
0
11
271.01742106740238
21
86.345879058448389
31
0
0
LINE
5
634
100
AcDbEntity
8
INTERIOR_PROFILES
100
AcDbLine
10
271.01742106740238
20
86.345879058448389
30
0
11
271.01742106740238
21
84.460903185548304
31
0
0
SPLINE
5
635
100
AcDbEntity
8
INTERIOR_PROFILES
100
AcDbSpline
70
0
71
3
72
11
73
7
74
0
42
0.000000001
43
0.0000000001
44
0.0000000001
40
-1.0004169000480589
40
-1.0004169000480589
40
-1.0004169000480589
40
-1.0004169000480589
40
-1
40
-1
40
-1
40
-0.91758278586231101
40
-0.91758278586231101
40
-0.91758278586231101
40
-0.91758278586231101
10
271.60469817540508
20
84.517481151239366
30
0
10
271.60365898140265
20
84.517379269604348
30
0
10
271.60261978740027
20
84.517277387969344
30
0
10
271.60158059339778
20
84.517175506334326
30
0
10
271.40160787489032
20
84.497570362855768
30
0
10
271.2068681500308
20
84.47881263796404
30
0
10
271.01742106740244
20
84.460903185548304
30
0
0
SPLINE
5
636
100
AcDbEntity
8
INTERIOR_PROFILES
100
AcDbSpline
70
0
71
3
72
14
73
10
74
0
42
0.000000001
43
0.0000000001
44
0.0000000001
40
-1
40
-1
40
-1
40
-1
40
-0.88419224763905335
40
-0.88419224763905335
40
-0.88419224763905335
40
-0
40
-0
40
-0
40
0.00068616794420900493
40
0.00068616794420900493
40
0.00068616794420900493
40
0.00068616794420900493
10
275.46187743544579
20
84.760973959539626
30
0
10
275.33837168728127
20
84.760973959539626
30
0
10
275.21433521937297
20
84.759558633860053
30
0
10
275.08838279227967
20
84.756962132891914
30
0
10
274.12673594794632
20
84.737137846691581
30
0
10
273.01555137633153
20
84.654015046138142
30
0
10
271.6078171241154
20
84.517782984975995
30
0
10
271.60677747452507
20
84.517682373936395
30
0
10
271.60573782493475
20
84.51758176289681
30
0
10
271.60469817534323
20
84.517481151857112
30
0
0
SPLINE
5
637
100
AcDbEntity
8
INTERIOR_PROFILES
100
AcDbSpline
70
0
71
3
72
11
73
7
74
0
42
0.000000001
43
0.0000000001
44
0.0000000001
40
-0.38683932543774202
40
-0.38683932543774202
40
-0.38683932543774202
40
-0.38683932543774202
40
-0.29867242448134318
40
-0.29867242448134318
40
-0.29867242448134318
40
-0
40
-0
40
-0
40
-0
10
280.70381030440331
20
83.297264321336939
30
0
10
280.32298193889693
20
83.550874806086995
30
0
10
279.92607407123251
20
83.767687546617623
30
0
10
279.52360149285431
20
83.948609846339508
30
0
10
278.16019346254456
20
84.561498598405336
30
0
10
276.77560450279583
20
84.760973959539626
30
0
10
275.46187743544579
20
84.760973959539626
30
0
0
SPLINE
5
638
100
AcDbEntity
8
INTERIOR_PROFILES
100
AcDbSpline
70
0
71
3
72
8
73
4
74
0
42
0.000000001
43
0.0000000001
44
0.0000000001
40
-0.60445774182699596
40
-0.60445774182699596
40
-0.60445774182699596
40
-0.60445774182699596
40
-0.34684696669066384
40
-0.34684696669066384
40
-0.34684696669066384
40
-0.34684696669066384
10
161.18826627230663
20
84.252162558497332
30
0
10
160.11751036025635
20
84.697503750500616
30
0
10
159.00325600737804
20
85.04209403842161
30
0
10
157.85742106740241
20
85.290921536306499
30
0
0
SPLINE
5
639
100
AcDbEntity
8
INTERIOR_PROFILES
100
AcDbSpline
70
0
71
3
72
14
73
10
74
0
42
0.000000001
43
0.0000000001
44
0.0000000001
40
-1
40
-1
40
-1
40
-1
40
-0.96106249194853921
40
-0.96106249194853921
40
-0.96106249194853921
40
-0.607172678049541
40
-0.607172678049541
40
-0.607172678049541
40
-0.5446697017051586
40
-0.5446697017051586
40
-0.5446697017051586
40
-0.5446697017051586
10
166.57624587416649
20
85.714056997869704
30
0
10
166.42657814227323
20
85.714056997869704
30
0
10
166.27666111315256
20
85.711612201608744
30
0
10
166.12637724429339
20
85.706514161963426
30
0
10
164.76049809475214
20
85.660179807465212
30
0
10
163.32557188937847
20
85.406489020922464
30
0
10
161.9214136011762
20
84.680935752966136
30
0
10
161.67341530107166
20
84.552790672315126
30
0
10
161.42852704237049
20
84.410302337866511
30
0
10
161.18826627230663
20
84.252162558497332
30
0
0
SPLINE
5
640
100
AcDbEntity
8
INTERIOR_PROFILES
100
AcDbSpline
70
0
71
3
72
11
73
7
74
0
42
0.000000001
43
0.0000000001
44
0.0000000001
40
-0.45200574358790174
40
-0.45200574358790174
40
-0.45200574358790174
40
-0.45200574358790174
40
-0.33849590073566865
40
-0.33849590073566865
40
-0.33849590073566865
40
-0
40
-0
40
-0
40
-0
10
171.71382752795341
20
84.490043045247376
30
0
10
171.27102194567939
20
84.748797644054036
30
0
10
170.81878680393254
20
84.954960874841206
30
0
10
170.37771967175016
20
85.114276409412994
30
0
10
169.06242037750894
20
85.589368736395272
30
0
10
167.81823493894805
20
85.714056997869704
30
0
10
166.57624587416649
20
85.714056997869704
30
0
0
LINE
5
641
100
AcDbEntity
8
INTERIOR_PROFILES
100
AcDbLine
10
171.71382752795341
20
84.490043045247376
30
0
11
171.71382752795347
21
86.345879058448418
31
0
0
LINE
5
642
100
AcDbEntity
8
INTERIOR_PROFILES
100
AcDbLine
10
171.71382752795347
20
86.345879058448418
30
0
11
164.78562429767791
21
90.345879058448418
31
0
0
LINE
5
643
100
AcDbEntity
8
INTERIOR_PROFILES
100
AcDbLine
10
164.78562429767791
20
90.345879058448418
30
0
11
157.85742106740241
21
86.345879058448389
31
0
0
LINE
5
644
100
AcDbEntity
8
INTERIOR_PROFILES
100
AcDbLine
10
157.85742106740241
20
86.345879058448389
30
0
11
157.85742106740238
21
85.290921536306499
31
0
0
SPLINE
5
645
100
AcDbEntity
8
INTERIOR_PROFILES
100
AcDbSpline
70
0
71
3
72
11
73
7
74
0
42
0.000000001
43
0.0000000001
44
0.0000000001
40
-1
40
-1
40
-1
40
-1
40
-0.87215327568544476
40
-0.87215327568544476
40
-0.87215327568544476
40
-0
40
-0
40
-0
40
-0
10
133.07970537671497
20
48.12358303115672
30
0
10
133.06630021852362
20
47.982828434208002
30
0
10
133.05365988166542
20
47.845824743964222
30
0
10
133.04178383222362
20
47.71242143961917
30
0
10
132.96076700931786
20
46.802361917205985
30
0
10
132.91055545210841
20
46.093798874653551
30
0
10
132.91055545210841
20
45.376809149358962
30
0
0
SPLINE
5
646
100
AcDbEntity
8
INTERIOR_PROFILES
100
AcDbSpline
70
0
71
3
72
11
73
7
74
0
42
0.000000001
43
0.0000000001
44
0.0000000001
40
-1
40
-1
40
-1
40
-1
40
-0.87215327568544476
40
-0.87215327568544476
40
-0.87215327568544476
40
-0
40
-0
40
-0
40
-0
10
133.20381030440333
20
49.922268896673415
30
0
10
133.20381030440333
20
49.902398351019514
30
0
10
133.20353354199449
20
49.872228526673368
30
0
10
133.20266952168612
20
49.833685129692675
30
0
10
133.19677529055718
20
49.570747224064
30
0
10
133.1587659648695
20
48.953721777855677
30
0
10
133.07970537671497
20
48.12358303115672
30
0
0
SPLINE
5
647
100
AcDbEntity
8
INTERIOR_PROFILES
100
AcDbSpline
70
0
71
3
72
14
73
10
74
0
42
0.000000001
43
0.0000000001
44
0.0000000001
40
-1.05194066187669
40
-1.05194066187669
40
-1.05194066187669
40
-1.05194066187669
40
-1
40
-1
40
-1
40
-0.88627697650852955
40
-0.88627697650852955
40
-0.88627697650852955
40
-0
40
-0
40
-0
40
-0
10
133.07253213478236
20
51.486670645586841
30
0
10
133.07760941849128
20
51.440974927091673
30
0
10
133.08268670220019
20
51.395279208596506
30
0
10
133.08776398590911
20
51.349583490101338
30
0
10
133.09773196291277
20
51.25987137290668
30
0
10
133.10703384795065
20
51.173600140602176
30
0
10
133.11567018381533
20
51.090886084293182
30
0
10
133.1829756898008
20
50.446271111092216
30
0
10
133.20381030440333
20
49.983870510792684
30
0
10
133.20381030440333
20
49.922268896673415
30
0
0
SPLINE
5
648
100
AcDbEntity
8
INTERIOR_PROFILES
100
AcDbSpline
70
0
71
3
72
11
73
7
74
0
42
0.000000001
43
0.0000000001
44
0.0000000001
40
-0.85713140661103349
40
-0.85713140661103349
40
-0.85713140661103349
40
-0.85713140661103349
40
-0
40
-0
40
-0
40
0.052180023578258988
40
0.052180023578258988
40
0.052180023578258988
40
0.052180023578258988
10
132.98565772893193
20
53.607946163302358
30
0
10
132.99276631708426
20
53.04994914675585
30
0
10
133.02079373251138
20
52.417961886464767
30
0
10
133.06488111222879
20
51.624389051551503
30
0
10
133.06743145307999
20
51.578482916229945
30
0
10
133.06998179393119
20
51.532576780908386
30
0
10
133.07253213478239
20
51.48667064558704
30
0
0
LINE
5
649
100
AcDbEntity
8
INTERIOR_PROFILES
100
AcDbLine
10
132.98565772893193
20
53.607946163302358
30
0
11
127.06562429767791
21
57.025879058448403
31
0
0
LINE
5
650
100
AcDbEntity
8
INTERIOR_PROFILES
100
AcDbLine
10
127.06562429767791
20
57.025879058448403
30
0
11
120.13742106740241
21
53.025879058448382
31
0
0
LINE
5
651
100
AcDbEntity
8
INTERIOR_PROFILES
100
AcDbLine
10
120.13742106740241
20
53.025879058448382
30
0
11
120.13742106740244
21
45.025879058448375
31
0
0
LINE
5
652
100
AcDbEntity
8
INTERIOR_PROFILES
100
AcDbLine
10
120.13742106740244
20
45.025879058448375
30
0
11
127.06562429767794
21
41.025879058448396
31
0
0
LINE
5
653
100
AcDbEntity
8
INTERIOR_PROFILES
100
AcDbLine
10
127.06562429767794
20
41.025879058448396
30
0
11
132.95618498864468
21
44.426795859055879
31
0
0
SPLINE
5
654
100
AcDbEntity
8
INTERIOR_PROFILES
100
AcDbSpline
70
0
71
3
72
8
73
4
74
0
42
0.000000001
43
0.0000000001
44
0.0000000001
40
-1
40
-1
40
-1
40
-1
40
-0.92585794974669877
40
-0.92585794974669877
40
-0.92585794974669877
40
-0.92585794974669877
10
132.91055545210841
20
45.376809149358962
30
0
10
132.91055545210841
20
45.065709655695073
30
0
10
132.92452359075335
20
44.748793496880204
30
0
10
132.95618498864405
20
44.426795859062331
30
0
0
SPLINE
5
655
100
AcDbEntity
8
INTERIOR_PROFILES
100
AcDbSpline
70
0
71
3
72
11
73
7
74
0
42
0.000000001
43
0.0000000001
44
0.0000000001
40
-0.80709543119866389
40
-0.80709543119866389
40
-0.80709543119866389
40
-0.80709543119866389
40
-0.59220672528082163
40
-0.59220672528082163
40
-0.59220672528082163
40
-0.59189352782086568
40
-0.59189352782086568
40
-0.59189352782086568
40
-0.59189352782086568
10
227.14728583960124
20
153.64783521085573
30
0
10
226.07117321594276
20
153.32569032460174
30
0
10
224.99831194813819
20
152.78271940089616
30
0
10
224.09213053567046
20
152.0138663413442
30
0
10
224.09080978819131
20
152.01274574813152
30
0
10
224.08948932080048
20
152.01162466581994
30
0
10
224.08816939255857
20
152.01050331453337
30
0
0
LINE
5
656
100
AcDbEntity
8
INTERIOR_PROFILES
100
AcDbLine
10
227.14728583960124
20
153.64783521085573
30
0
11
221.36562429767793
21
156.9858790584484
31
0
0
LINE
5
657
100
AcDbEntity
8
INTERIOR_PROFILES
100
AcDbLine
10
221.36562429767793
20
156.9858790584484
30
0
11
215.65557317429881
21
153.68917950527896
31
0
0
SPLINE
5
658
100
AcDbEntity
8
INTERIOR_PROFILES
100
AcDbSpline
70
0
71
3
72
11
73
7
74
0
42
0.000000001
43
0.0000000001
44
0.0000000001
40
-1
40
-1
40
-1
40
-1
40
-0.79851468043701801
40
-0.79851468043701801
40
-0.79851468043701801
40
-0.012265137105887596
40
-0.012265137105887596
40
-0.012265137105887596
40
-0.012265137105887596
10
219.06891003251079
20
154.04249241885967
30
0
10
218.83880064860861
20
154.04249241885967
30
0
10
218.61877907774988
20
154.03504483779653
30
0
10
218.39961640555927
20
154.02279387355986
30
0
10
217.5443851098062
20
153.97498733828795
30
0
10
216.67777408597604
20
153.85870385730703
30
0
10
215.65557317429881
20
153.68917950527896
30
0
0
SPLINE
5
659
100
AcDbEntity
8
INTERIOR_PROFILES
100
AcDbSpline
70
0
71
3
72
11
73
7
74
0
42
0.000000001
43
0.0000000001
44
0.0000000001
40
-0.42000664595284637
40
-0.42000664595284637
40
-0.42000664595284637
40
-0.42000664595284637
40
-0.2653191426541347
40
-0.2653191426541347
40
-0.2653191426541347
40
-0
40
-0
40
-0
40
-0
10
224.08816939255857
20
152.01050331453337
30
0
10
223.58466520134246
20
152.52096410411752
30
0
10
222.97908370854
20
152.96331238899506
30
0
10
222.33717050968463
20
153.28785544351885
30
0
10
221.23616457225091
20
153.84450988000765
30
0
10
220.07701766450364
20
154.04249241885967
30
0
10
219.06891003251079
20
154.04249241885967
30
0
0
LWPOLYLINE
5
660
100
AcDbEntity
8
INTERIOR_PROFILES
100
AcDbPolyline
90
6
70
1
43
0.0
10
133.99382752795344
20
78.345879058448418
10
127.06562429767794
20
74.345879058448403
10
120.13742106740244
20
78.345879058448389
10
120.13742106740241
20
86.345879058448389
10
127.06562429767793
20
90.345879058448418
10
133.99382752795344
20
86.345879058448418
0
LWPOLYLINE
5
661
100
AcDbEntity
8
INTERIOR_PROFILES
100
AcDbPolyline
90
6
70
1
43
0.0
10
30.265624297677576
20
95.335752039526227
10
23.337421067402033
20
91.335752039526312
10
16.409217837126562
20
95.335752039526383
10
16.409217837126668
20
103.33575203952641
10
23.337421067402211
20
107.33575203952633
10
30.265624297677682
20
103.33575203952623
0
SPLINE
5
662
100
AcDbEntity
8
INTERIOR_PROFILES
100
AcDbSpline
70
0
71
3
72
11
73
7
74
0
42
0.000000001
43
0.0000000001
44
0.0000000001
40
-1
40
-1
40
-1
40
-1
40
-0.83073636217019842
40
-0.83073636217019842
40
-0.83073636217019842
40
-0
40
-0
40
-0
40
-0
10
355.91013899776476
20
84.393777472382055
30
0
10
355.7443416421998
20
84.364943068135631
30
0
10
355.58830583407854
20
84.339084447636338
30
0
10
355.44264896485487
20
84.316186880295007
30
0
10
354.72777328797963
20
84.203806914700607
30
0
10
354.2265867709973
20
84.174464254949783
30
0
10
354.20087203383446
20
84.174464254949783
30
0
0
SPLINE
5
663
100
AcDbEntity
8
INTERIOR_PROFILES
100
AcDbSpline
70
0
71
3
72
11
73
7
74
0
42
0.000000001
43
0.0000000001
44
0.0000000001
40
-1
40
-1
40
-1
40
-1
40
-0.75102689994221783
40
-0.75102689994221783
40
-0.75102689994221783
40
-0
40
-0
40
-0
40
-0
10
359.25952300429344
20
84.760973959539626
30
0
10
358.97477373788979
20
84.760973959539626
30
0
10
358.7111547008999
20
84.748883475309285
30
0
10
358.4483302223008
20
84.730170939834295
30
0
10
357.65552066437897
20
84.673724610875098
30
0
10
356.85397661817649
20
84.557921752978032
30
0
10
355.91014840377824
20
84.393779108205877
30
0
0
SPLINE
5
664
100
AcDbEntity
8
INTERIOR_PROFILES
100
AcDbSpline
70
0
71
3
72
8
73
4
74
0
42
0.000000001
43
0.0000000001
44
0.0000000001
40
-0.10641063680299465
40
-0.10641063680299465
40
-0.10641063680299465
40
-0.10641063680299465
40
-0
40
-0
40
-0
40
-0
10
360.31382752795338
20
84.701442311111279
30
0
10
359.95049319034933
20
84.744257048127054
30
0
10
359.59810218328101
20
84.760973959539598
30
0
10
359.25952300429344
20
84.760973959539626
30
0
0
LINE
5
665
100
AcDbEntity
8
INTERIOR_PROFILES
100
AcDbLine
10
360.31382752795338
20
84.701442311111279
30
0
11
360.31382752795344
21
86.345879058448418
31
0
0
LINE
5
666
100
AcDbEntity
8
INTERIOR_PROFILES
100
AcDbLine
10
360.31382752795344
20
86.345879058448418
30
0
11
353.38562429767791
21
90.345879058448418
31
0
0
LINE
5
667
100
AcDbEntity
8
INTERIOR_PROFILES
100
AcDbLine
10
353.38562429767791
20
90.345879058448418
30
0
11
346.45742106740244
21
86.345879058448389
31
0
0
LINE
5
668
100
AcDbEntity
8
INTERIOR_PROFILES
100
AcDbLine
10
346.45742106740244
20
86.345879058448389
30
0
11
346.45742106740244
21
84.1896728146139
31
0
0
SPLINE
5
669
100
AcDbEntity
8
INTERIOR_PROFILES
100
AcDbSpline
70
0
71
3
72
11
73
7
74
0
42
0.000000001
43
0.0000000001
44
0.0000000001
40
-1
40
-1
40
-1
40
-1
40
-0.57949773090145318
40
-0.57949773090145318
40
-0.57949773090145318
40
-0.5780044478312204
40
-0.5780044478312204
40
-0.5780044478312204
40
-0.5780044478312204
10
349.65541228652
20
84.760973959539626
30
0
10
348.60896622029856
20
84.760973959539626
30
0
10
347.51073477024715
20
84.586350073934852
30
0
10
346.46852114638369
20
84.193862499382135
30
0
10
346.46482004873343
20
84.192468701789522
30
0
10
346.46112002136942
20
84.191072138677384
30
0
10
346.45742106740227
20
84.189672814613886
30
0
0
SPLINE
5
670
100
AcDbEntity
8
INTERIOR_PROFILES
100
AcDbSpline
70
0
71
3
72
14
73
10
74
0
42
0.000000001
43
0.0000000001
44
0.0000000001
40
-1.0000092978430923
40
-1.0000092978430923
40
-1.0000092978430923
40
-1.0000092978430923
40
-1
40
-1
40
-1
40
-0.84255365100761448
40
-0.84255365100761448
40
-0.84255365100761448
40
-0
40
-0
40
-0
40
-0
10
352.79288468520832
20
84.348650614854705
30
0
10
352.79287650523645
20
84.348652432613108
30
0
10
352.79286832526452
20
84.34865425037151
30
0
10
352.79286014558585
20
84.348656068064741
30
0
10
352.62420675589567
20
84.386134328261392
30
0
10
352.45811882376495
20
84.421409157488384
30
0
10
352.29400704994987
20
84.454448190847103
30
0
10
351.41578424525414
20
84.631252279098732
30
0
10
350.62891768152832
20
84.760973959539626
30
0
10
349.65541228652
20
84.760973959539626
30
0
0
SPLINE
5
671
100
AcDbEntity
8
INTERIOR_PROFILES
100
AcDbSpline
70
0
71
3
72
8
73
4
74
0
42
0.000000001
43
0.0000000001
44
0.0000000001
40
-1
40
-1
40
-1
40
-1
40
-5.5798413030777e-06
40
-5.5798413030777e-06
40
-5.5798413030777e-06
40
-5.5798413030777e-06
10
354.20087203383446
20
84.174464254949783
30
0
10
353.83552779962224
20
84.174464254949783
30
0
10
353.36637964146462
20
84.221207012012357
30
0
10
352.79288468493866
20
84.348650614865079
30
0
0
LWPOLYLINE
5
672
100
AcDbEntity
8
INTERIOR_PROFILES
100
AcDbPolyline
90
6
70
1
43
0.0
10
13.905624297677939
20
123.66587905844841
10
20.83382752795341
20
119.66587905844844
10
20.833827527953446
20
111.66587905844843
10
13.905624297677974
20
107.66587905844841
10
6.9774210674024317
20
111.66587905844838
10
6.9774210674023962
20
119.6658790584484
0
LWPOLYLINE
5
673
100
AcDbEntity
8
INTERIOR_PROFILES
100
AcDbPolyline
90
6
70
1
43
0.0
10
77.413827527953458
20
86.345879058448418
10
77.413827527953458
20
78.345879058448418
10
70.485624297677958
20
74.345879058448403
10
63.557421067402444
20
78.345879058448389
10
63.557421067402444
20
86.345879058448389
10
70.485624297677916
20
90.345879058448418
0
SPLINE
5
674
100
AcDbEntity
8
INTERIOR_PROFILES
100
AcDbSpline
70
0
71
2
72
6
73
3
74
0
42
0.000000001
43
0.0000000001
44
0.0000000001
40
0
40
0
40
0
40
1
40
1
40
1
10
76.385632902383833
20
147.79615929660625
30
0
10
80.564519315958051
20
150.06888440189189
30
0
10
87.895900160074262
20
150.06888440189189
30
0
0
SPLINE
5
675
100
AcDbEntity
8
INTERIOR_PROFILES
100
AcDbSpline
70
0
71
2
72
6
73
3
74
0
42
0.000000001
43
0.0000000001
44
0.0000000001
40
0
40
0
40
0
40
1
40
1
40
1
10
72.206746488809586
20
141.5644889169676
30
0
10
72.206746488809614
20
145.52343419132063
30
0
10
76.385632902383833
20
147.79615929660625
30
0
0
SPLINE
5
676
100
AcDbEntity
8
INTERIOR_PROFILES
100
AcDbSpline
70
0
71
2
72
6
73
3
74
0
42
0.000000001
43
0.0000000001
44
0.0000000001
40
0
40
0
40
0
40
1
40
1
40
1
10
74.112907797098188
20
137.16566136417217
30
0
10
72.206746488809586
20
138.9251904779417
30
0
10
72.206746488809586
20
141.5644889169676
30
0
0
SPLINE
5
677
100
AcDbEntity
8
INTERIOR_PROFILES
100
AcDbSpline
70
0
71
2
72
6
73
3
74
0
42
0.000000001
43
0.0000000001
44
0.0000000001
40
0
40
0
40
0
40
1
40
1
40
1
10
78.951617628335981
20
135.40613225040264
30
0
10
76.01906433701518
20
135.40613225040264
30
0
10
74.112907797098188
20
137.16566136417217
30
0
0
SPLINE
5
678
100
AcDbEntity
8
INTERIOR_PROFILES
100
AcDbSpline
70
0
71
2
72
6
73
3
74
0
42
0.000000001
43
0.0000000001
44
0.0000000001
40
0
40
0
40
0
40
1
40
1
40
1
10
83.203812986612348
20
136.79909279880351
30
0
10
81.517597585916548
20
135.40613225040264
30
0
10
78.951617628335981
20
135.40613225040264
30
0
0
SPLINE
5
679
100
AcDbEntity
8
INTERIOR_PROFILES
100
AcDbSpline
70
0
71
2
72
6
73
3
74
0
42
0.000000001
43
0.0000000001
44
0.0000000001
40
0
40
0
40
0
40
1
40
1
40
1
10
84.963346868753462
20
140.24483731326885
30
0
10
84.963346868753433
20
138.19205334720439
30
0
10
83.203812986612348
20
136.79909279880351
30
0
0
LINE
5
680
100
AcDbEntity
8
INTERIOR_PROFILES
100
AcDbLine
10
84.963346868753462
20
140.24483731326885
30
0
11
84.963346868753462
21
140.53809216556377
31
0
0
SPLINE
5
681
100
AcDbEntity
8
INTERIOR_PROFILES
100
AcDbSpline
70
0
71
2
72
6
73
3
74
0
42
0.000000001
43
0.0000000001
44
0.0000000001
40
0
40
0
40
0
40
1
40
1
40
1
10
84.890033155679703
20
141.56448891696758
30
0
10
84.890033155679731
20
141.05129292545146
30
0
10
84.963346868753462
20
140.53809216556377
30
0
0
SPLINE
5
682
100
AcDbEntity
8
INTERIOR_PROFILES
100
AcDbSpline
70
0
71
2
72
6
73
3
74
0
42
0.000000001
43
0.0000000001
44
0.0000000001
40
0
40
0
40
0
40
1
40
1
40
1
10
87.309385687112808
20
143.10407689151592
30
0
10
84.890033155679703
20
143.10407689151592
30
0
10
84.890033155679703
20
141.56448891696758
30
0
0
SPLINE
5
683
100
AcDbEntity
8
INTERIOR_PROFILES
100
AcDbSpline
70
0
71
2
72
6
73
3
74
0
42
0.000000001
43
0.0000000001
44
0.0000000001
40
0
40
0
40
0
40
1
40
1
40
1
10
90.828448683023453
20
141.93105748233623
30
0
10
89.435483366250992
20
143.10407689151592
30
0
10
87.309385687112808
20
143.10407689151592
30
0
0
SPLINE
5
684
100
AcDbEntity
8
INTERIOR_PROFILES
100
AcDbSpline
70
0
71
2
72
6
73
3
74
0
42
0.000000001
43
0.0000000001
44
0.0000000001
40
0
40
0
40
0
40
1
40
1
40
1
10
92.294722944498062
20
139.14513638553447
30
0
10
92.294722944498091
20
140.83134701785869
30
0
10
90.828448683023453
20
141.93105748233623
30
0
0
SPLINE
5
685
100
AcDbEntity
8
INTERIOR_PROFILES
100
AcDbSpline
70
0
71
2
72
6
73
3
74
0
42
0.000000001
43
0.0000000001
44
0.0000000001
40
0
40
0
40
0
40
1
40
1
40
1
10
90.388566404581098
20
135.62606862125224
30
0
10
92.294722944498091
20
136.79909279880351
30
0
10
92.294722944498062
20
139.14513638553447
30
0
0
SPLINE
5
686
100
AcDbEntity
8
INTERIOR_PROFILES
100
AcDbSpline
70
0
71
2
72
6
73
3
74
0
42
0.000000001
43
0.0000000001
44
0.0000000001
40
0.61396709982246789
40
0.61396709982246789
40
0.61396709982246789
40
1
40
1
40
1
10
88.470923099560508
20
134.80980237022902
30
0
10
89.681026931816902
20
135.20154788279103
30
0
10
90.388566404581098
20
135.62606862125224
30
0
0
LINE
5
687
100
AcDbEntity
8
INTERIOR_PROFILES
100
AcDbLine
10
88.470923099560508
20
134.80980237022902
30
0
11
88.470923099559968
21
127.06017831967827
31
0
0
SPLINE
5
688
100
AcDbEntity
8
INTERIOR_PROFILES
100
AcDbSpline
70
0
71
2
72
6
73
3
74
0
42
0.000000001
43
0.0000000001
44
0.0000000001
40
0
40
0
40
0
40
0.75821323362750725
40
0.75821323362750725
40
0.75821323362750725
10
92.368041425943375
20
128.22137883243389
30
0
10
91.978925818288829
20
127.9990291225984
30
0
10
88.470923099559968
20
127.06017831967827
30
0
0
LINE
5
689
100
AcDbEntity
8
INTERIOR_PROFILES
100
AcDbLine
10
92.368041425943375
20
128.22137883243389
30
0
11
92.368041425943403
21
126.60847714481181
31
0
0
SPLINE
5
690
100
AcDbEntity
8
INTERIOR_PROFILES
100
AcDbSpline
70
0
71
2
72
6
73
3
74
0
42
0.000000001
43
0.0000000001
44
0.0000000001
40
0.22717018623467242
40
0.22717018623467242
40
0.22717018623467242
40
1
40
1
40
1
10
88.470923099559911
20
120.21168380502527
30
0
10
92.368041425943403
20
121.39583963818053
30
0
10
92.368041425943403
20
126.60847714481181
30
0
0
LINE
5
691
100
AcDbEntity
8
INTERIOR_PROFILES
100
AcDbLine
10
88.470923099559911
20
120.21168380502527
30
0
11
88.47092309961937
21
111.81622949396024
31
0
0
SPLINE
5
692
100
AcDbEntity
8
INTERIOR_PROFILES
100
AcDbSpline
70
0
71
2
72
6
73
3
74
0
42
0.000000001
43
0.0000000001
44
0.0000000001
40
0
40
0
40
0
40
0.56946499678458673
40
0.56946499678458673
40
0.56946499678458673
10
94.934021383523969
20
115.75803807315654
30
0
10
92.011547131517375
20
113.00255947924846
30
0
10
88.47092309961937
20
111.81622949396024
30
0
0
SPLINE
5
693
100
AcDbEntity
8
INTERIOR_PROFILES
100
AcDbSpline
70
0
71
2
72
6
73
3
74
0
42
0.000000001
43
0.0000000001
44
0.0000000001
40
0
40
0
40
0
40
1
40
1
40
1
10
102.99853459000589
20
110.91932347354717
30
0
10
96.986805349588408
20
110.91932347354717
30
0
10
94.934021383523969
20
115.75803807315654
30
0
0
SPLINE
5
694
100
AcDbEntity
8
INTERIOR_PROFILES
100
AcDbSpline
70
0
71
2
72
6
73
3
74
0
42
0.000000001
43
0.0000000001
44
0.0000000001
40
0
40
0
40
0
40
1
40
1
40
1
10
108.49706783890726
20
112.45891621646709
30
0
10
106.37096539139749
20
110.91932347354717
30
0
10
102.99853459000589
20
110.91932347354717
30
0
0
SPLINE
5
695
100
AcDbEntity
8
INTERIOR_PROFILES
100
AcDbSpline
70
0
71
2
72
6
73
3
74
0
42
0.000000001
43
0.0000000001
44
0.0000000001
40
0
40
0
40
0
40
1
40
1
40
1
10
110.69648876786233
20
116.41786149082012
30
0
10
110.69648876786233
20
113.99850895938701
30
0
10
108.49706783890726
20
112.45891621646709
30
0
0
SPLINE
5
696
100
AcDbEntity
8
INTERIOR_PROFILES
100
AcDbSpline
70
0
71
2
72
6
73
3
74
0
42
0.000000001
43
0.0000000001
44
0.0000000001
40
0
40
0
40
0
40
1
40
1
40
1
10
109.52346935868265
20
119.2770963006956
30
0
10
110.69648876786233
20
118.10407689151592
30
0
10
110.69648876786233
20
116.41786149082012
30
0
0
SPLINE
5
697
100
AcDbEntity
8
INTERIOR_PROFILES
100
AcDbSpline
70
0
71
2
72
6
73
3
74
0
42
0.000000001
43
0.0000000001
44
0.0000000001
40
0
40
0
40
0
40
1
40
1
40
1
10
106.66422024369241
20
120.45012047824687
30
0
10
108.3504404127598
20
120.45012047824687
30
0
10
109.52346935868265
20
119.2770963006956
30
0
0
SPLINE
5
698
100
AcDbEntity
8
INTERIOR_PROFILES
100
AcDbSpline
70
0
71
2
72
6
73
3
74
0
42
0.000000001
43
0.0000000001
44
0.0000000001
40
0
40
0
40
0
40
1
40
1
40
1
10
106.15102902054788
20
120.37680676517314
30
0
10
106.37096539139749
20
120.45012047824687
30
0
10
106.66422024369241
20
120.45012047824687
30
0
0
SPLINE
5
699
100
AcDbEntity
8
INTERIOR_PROFILES
100
AcDbSpline
70
0
71
2
72
6
73
3
74
0
42
0.000000001
43
0.0000000001
44
0.0000000001
40
0
40
0
40
0
40
1
40
1
40
1
10
105.05132809281351
20
120.30349305209941
30
0
10
105.63783779740335
20
120.30349305209941
30
0
10
106.15102902054788
20
120.37680676517314
30
0
0
SPLINE
5
700
100
AcDbEntity
8
INTERIOR_PROFILES
100
AcDbSpline
70
0
71
2
72
6
73
3
74
0
42
0.000000001
43
0.0000000001
44
0.0000000001
40
0
40
0
40
0
40
1
40
1
40
1
10
103.87829914689065
20
122.64953187045879
30
0
10
103.87829914689065
20
120.30349305209941
30
0
10
105.05132809281351
20
120.30349305209941
30
0
0
LINE
5
701
100
AcDbEntity
8
INTERIOR_PROFILES
100
AcDbLine
10
103.87829914689065
20
122.64953187045879
30
0
11
103.87829914689065
21
137.82548478183574
31
0
0
SPLINE
5
702
100
AcDbEntity
8
INTERIOR_PROFILES
100
AcDbSpline
70
0
71
2
72
6
73
3
74
0
42
0.000000001
43
0.0000000001
44
0.0000000001
40
0
40
0
40
0
40
1
40
1
40
1
10
99.699417501688018
20
147.64953187045879
30
0
10
103.87829914689065
20
145.01023343143291
30
0
10
103.87829914689065
20
137.82548478183574
30
0
0
SPLINE
5
703
100
AcDbEntity
8
INTERIOR_PROFILES
100
AcDbSpline
70
0
71
2
72
6
73
3
74
0
42
0.000000001
43
0.0000000001
44
0.0000000001
40
0
40
0
40
0
40
1
40
1
40
1
10
87.895900160074262
20
150.06888440189189
30
0
10
95.813785940408735
20
150.06888440189189
30
0
10
99.699417501688018
20
147.64953187045879
30
0
0
LINE
5
704
100
AcDbEntity
8
INTERIOR_PROFILES
100
AcDbLine
10
49.551019507437211
20
120.4375736205121
30
0
11
49.551019507437211
21
110.91947160088898
31
0
0
SPLINE
5
705
100
AcDbEntity
8
INTERIOR_PROFILES
100
AcDbSpline
70
0
71
2
72
6
73
3
74
0
42
0.000000001
43
0.0000000001
44
0.0000000001
40
0
40
0
40
0
40
0.0050255044320473893
40
0.0050255044320473893
40
0.0050255044320473893
10
49.626101404428482
20
110.91932347354717
30
0
10
49.588520646714251
20
110.91932347354717
30
0
10
49.551019507437204
20
110.91947160088895
30
0
0
SPLINE
5
706
100
AcDbEntity
8
INTERIOR_PROFILES
100
AcDbSpline
70
0
71
2
72
6
73
3
74
0
42
0.000000001
43
0.0000000001
44
0.0000000001
40
0
40
0
40
0
40
1
40
1
40
1
10
61.576248556375504
20
116.41786149082012
30
0
10
57.104109674692154
20
110.91932347354717
30
0
10
49.626101404428482
20
110.91932347354717
30
0
0
SPLINE
5
707
100
AcDbEntity
8
INTERIOR_PROFILES
100
AcDbSpline
70
0
71
2
72
6
73
3
74
0
42
0.000000001
43
0.0000000001
44
0.0000000001
40
0
40
0
40
0
40
1
40
1
40
1
10
66.048389822244644
20
131.08061841068096
30
0
10
66.048389822244644
20
121.91639473972148
30
0
10
61.576248556375504
20
116.41786149082012
30
0
0
SPLINE
5
708
100
AcDbEntity
8
INTERIOR_PROFILES
100
AcDbSpline
70
0
71
2
72
6
73
3
74
0
42
0.000000001
43
0.0000000001
44
0.0000000001
40
0
40
0
40
0
40
1
40
1
40
1
10
62.016133219003713
20
144.7902970605833
30
0
10
66.048389822244673
20
139.58501866397685
30
0
10
66.048389822244644
20
131.08061841068096
30
0
0
SPLINE
5
709
100
AcDbEntity
8
INTERIOR_PROFILES
100
AcDbSpline
70
0
71
2
72
6
73
3
74
0
42
0.000000001
43
0.0000000001
44
0.0000000001
40
0
40
0
40
0
40
1
40
1
40
1
10
51.605574041605031
20
150.06888440189189
30
0
10
58.057187944650686
20
150.06888440189189
30
0
10
62.016133219003713
20
144.7902970605833
30
0
0
SPLINE
5
710
100
AcDbEntity
8
INTERIOR_PROFILES
100
AcDbSpline
70
0
71
2
72
6
73
3
74
0
42
0.000000001
43
0.0000000001
44
0.0000000001
40
0.82187465016780736
40
0.82187465016780736
40
0.82187465016780736
40
1
40
1
40
1
10
49.551019507437246
20
149.91070658080719
30
0
10
50.560850729136753
20
150.06888440189189
30
0
10
51.605574041605031
20
150.06888440189189
30
0
0
LINE
5
711
100
AcDbEntity
8
INTERIOR_PROFILES
100
AcDbLine
10
49.551019507437246
20
149.91070658080719
30
0
11
49.551019507437246
21
140.57888876583604
31
0
0
SPLINE
5
712
100
AcDbEntity
8
INTERIOR_PROFILES
100
AcDbSpline
70
0
71
2
72
6
73
3
74
0
42
0.000000001
43
0.0000000001
44
0.0000000001
40
0
40
0
40
0
40
0.86788542278504177
40
0.86788542278504177
40
0.86788542278504177
10
54.244870096445119
20
130.49410870609111
30
0
10
54.244870096445119
20
139.40202338426252
30
0
10
49.551019507437246
20
140.57888876583604
30
0
0
SPLINE
5
713
100
AcDbEntity
8
INTERIOR_PROFILES
100
AcDbSpline
70
0
71
2
72
6
73
3
74
0
42
0.000000001
43
0.0000000001
44
0.0000000001
40
0.14214826436925204
40
0.14214826436925204
40
0.14214826436925204
40
1
40
1
40
1
10
49.551019507437182
20
120.4375736205121
30
0
10
54.244870096445091
20
121.68917908416263
30
0
10
54.244870096445119
20
130.49410870609111
30
0
0
LWPOLYLINE
5
714
100
AcDbEntity
8
INTERIOR_PROFILES
100
AcDbPolyline
90
6
70
1
43
0.0
10
322.59382752795347
20
111.66587905844843
10
315.66562429767794
20
107.66587905844841
10
308.73742106740247
20
111.66587905844838
10
308.73742106740241
20
119.6658790584484
10
315.66562429767794
20
123.6658790584484
10
322.59382752795347
20
119.66587905844841
0
SPLINE
5
715
100
AcDbEntity
8
INTERIOR_PROFILES
100
AcDbSpline
70
0
71
3
72
8
73
4
74
0
42
0.000000001
43
0.0000000001
44
0.0000000001
40
-0.22281560652393612
40
-0.22281560652393612
40
-0.22281560652393612
40
-0.22281560652393612
40
-0
40
-0
40
-0
40
-0
10
76.697172815800826
20
153.39963984942571
30
0
10
75.758215939434848
20
153.05820402261458
30
0
10
74.857741855892527
20
152.65682440281637
30
0
10
73.996775271457125
20
152.18857995259577
30
0
0
LINE
5
716
100
AcDbEntity
8
INTERIOR_PROFILES
100
AcDbLine
10
76.697172815800826
20
153.39963984942571
30
0
11
70.485624297677958
21
156.98587905844843
31
0
0
LINE
5
717
100
AcDbEntity
8
INTERIOR_PROFILES
100
AcDbLine
10
70.485624297677958
20
156.98587905844843
30
0
11
63.557421067402444
21
152.9858790584484
31
0
0
LINE
5
718
100
AcDbEntity
8
INTERIOR_PROFILES
100
AcDbLine
10
63.557421067402444
20
152.9858790584484
30
0
11
63.55742106740243
21
150.51686667882558
31
0
0
SPLINE
5
719
100
AcDbEntity
8
INTERIOR_PROFILES
100
AcDbSpline
70
0
71
3
72
8
73
4
74
0
42
0.000000001
43
0.0000000001
44
0.0000000001
40
-0.9977232688790465
40
-0.9977232688790465
40
-0.9977232688790465
40
-0.9977232688790465
40
-0.78291301192801965
40
-0.78291301192801965
40
-0.78291301192801965
40
-0.78291301192801965
10
65.992737542341359
20
147.82143342928674
30
0
10
65.256179499613523
20
148.79987112573866
30
0
10
64.442847843917548
20
149.70429433268973
30
0
10
63.55742106740243
20
150.51686667882558
30
0
0
SPLINE
5
720
100
AcDbEntity
8
INTERIOR_PROFILES
100
AcDbSpline
70
0
71
3
72
8
73
4
74
0
42
0.000000001
43
0.0000000001
44
0.0000000001
40
-0.18959449290560454
40
-0.18959449290560454
40
-0.18959449290560454
40
-0.18959449290560454
40
-0.0022774476216502202
40
-0.0022774476216502202
40
-0.0022774476216502202
40
-0.0022774476216502202
10
67.7618998525503
20
145.14237962777514
30
0
10
67.237682877804417
20
146.07775670567318
30
0
10
66.645944311601966
20
146.9750578582256
30
0
10
65.992737542341644
20
147.82143342928697
30
0
0
SPLINE
5
721
100
AcDbEntity
8
INTERIOR_PROFILES
100
AcDbSpline
70
0
71
3
72
14
73
10
74
0
42
0.000000001
43
0.0000000001
44
0.0000000001
40
-1
40
-1
40
-1
40
-1
40
-0.91373388029794134
40
-0.91373388029794134
40
-0.91373388029794134
40
-0.44228806037548901
40
-0.44228806037548901
40
-0.44228806037548901
40
-0.2723669732499594
40
-0.2723669732499594
40
-0.2723669732499594
40
-0.2723669732499594
10
73.996775271457125
20
152.18857995259577
30
0
10
73.664100176474562
20
152.00765159861754
30
0
10
73.338549281841978
20
151.81702216794039
30
0
10
73.020577142332357
20
151.61565021819638
30
0
10
71.282853960376798
20
150.51514906798417
30
0
10
69.742725161401353
20
149.0596501320222
30
0
10
68.690097435325185
20
147.22969663499651
30
0
10
68.310703579244915
20
146.57013476284985
30
0
10
67.997390862503835
20
145.86646035027582
30
0
10
67.7618998525503
20
145.14237962777514
30
0
0
LINE
5
722
100
AcDbEntity
8
INTERIOR_PROFILES
100
AcDbLine
10
49.125624297677604
20
95.335752039526227
30
0
11
49.12562429767771
21
103.33575203952623
31
0
0
LINE
5
723
100
AcDbEntity
8
INTERIOR_PROFILES
100
AcDbLine
10
49.12562429767771
20
103.33575203952623
30
0
11
42.601733355830262
21
107.1023222309657
31
0
0
SPLINE
5
724
100
AcDbEntity
8
INTERIOR_PROFILES
100
AcDbSpline
70
0
71
3
72
8
73
4
74
0
42
0.000000001
43
0.0000000001
44
0.0000000001
40
-0.41573214229500166
40
-0.41573214229500166
40
-0.41573214229500166
40
-0.41573214229500166
40
-0.38703536494867735
40
-0.38703536494867735
40
-0.38703536494867735
40
-0.38703536494867735
10
42.112707106842073
20
107.28684241159279
30
0
10
42.274769281894287
20
107.22304867633494
30
0
10
42.437792870572373
20
107.16154606225048
30
0
10
42.60173335583027
20
107.1023222309657
30
0
0
LINE
5
725
100
AcDbEntity
8
INTERIOR_PROFILES
100
AcDbLine
10
42.112707106842073
20
107.28684241159279
30
0
11
35.269217837126661
21
103.33575203952641
31
0
0
LINE
5
726
100
AcDbEntity
8
INTERIOR_PROFILES
100
AcDbLine
10
35.269217837126661
20
103.33575203952641
30
0
11
35.269217837126554
21
95.335752039526383
31
0
0
LINE
5
727
100
AcDbEntity
8
INTERIOR_PROFILES
100
AcDbLine
10
35.269217837126554
20
95.335752039526383
30
0
11
42.197421067402026
21
91.335752039526298
31
0
0
LINE
5
728
100
AcDbEntity
8
INTERIOR_PROFILES
100
AcDbLine
10
42.197421067402026
20
91.335752039526298
30
0
11
49.125624297677604
21
95.335752039526227
31
0
0
LINE
5
729
100
AcDbEntity
8
INTERIOR_PROFILES
100
AcDbLine
10
148.42921783712657
20
95.335752039526383
30
0
11
155.35742106740204
21
91.335752039526312
31
0
0
LINE
5
730
100
AcDbEntity
8
INTERIOR_PROFILES
100
AcDbLine
10
155.35742106740204
20
91.335752039526312
30
0
11
162.2856242976776
21
95.335752039526227
31
0
0
LINE
5
731
100
AcDbEntity
8
INTERIOR_PROFILES
100
AcDbLine
10
162.2856242976776
20
95.335752039526227
30
0
11
162.28562429767771
21
103.33575203952623
31
0
0
LINE
5
732
100
AcDbEntity
8
INTERIOR_PROFILES
100
AcDbLine
10
162.28562429767771
20
103.33575203952623
30
0
11
156.15159123272318
21
106.87723768079593
31
0
0
SPLINE
5
733
100
AcDbEntity
8
INTERIOR_PROFILES
100
AcDbSpline
70
0
71
3
72
8
73
4
74
0
42
0.000000001
43
0.0000000001
44
0.0000000001
40
-0.22563958311874557
40
-0.22563958311874557
40
-0.22563958311874557
40
-0.22563958311874557
40
-0.042774852272982916
40
-0.042774852272982916
40
-0.042774852272982916
40
-0.042774852272982916
10
154.79400803070223
20
107.01046537112263
30
0
10
155.2486155814085
20
106.93466552280287
30
0
10
155.70351254204706
20
106.89105011578356
30
0
10
156.15159123272318
20
106.87723768079593
30
0
0
LINE
5
734
100
AcDbEntity
8
INTERIOR_PROFILES
100
AcDbLine
10
154.79400803070223
20
107.01046537112263
30
0
11
148.42921783712669
21
103.3357520395264
31
0
0
LINE
5
735
100
AcDbEntity
8
INTERIOR_PROFILES
100
AcDbLine
10
148.42921783712669
20
103.3357520395264
30
0
11
148.42921783712657
21
95.335752039526383
31
0
0
SPLINE
5
736
100
AcDbEntity
8
INTERIOR_PROFILES
100
AcDbSpline
70
0
71
2
72
6
73
3
74
0
42
0.000000001
43
0.0000000001
44
0.0000000001
40
0
40
0
40
0
40
1
40
1
40
1
10
297.82257422804832
20
79.467719107244704
30
0
10
299.80204924941069
20
79.760973959539626
30
0
10
300.68181380629545
20
79.760973959539626
30
0
0
SPLINE
5
737
100
AcDbEntity
8
INTERIOR_PROFILES
100
AcDbSpline
70
0
71
2
72
6
73
3
74
0
42
0.000000001
43
0.0000000001
44
0.0000000001
40
0
40
0
40
0
40
1
40
1
40
1
10
293.79031524062157
20
79.174464254949783
30
0
10
295.84309920668602
20
79.174464254949783
30
0
10
297.82257422804832
20
79.467719107244704
30
0
0
SPLINE
5
738
100
AcDbEntity
8
INTERIOR_PROFILES
100
AcDbSpline
70
0
71
2
72
6
73
3
74
0
42
0.000000001
43
0.0000000001
44
0.0000000001
40
0
40
0
40
0
40
1
40
1
40
1
10
289.83137473464012
20
79.467719107244704
30
0
10
292.47066840529442
20
79.174464254949783
30
0
10
293.79031524062157
20
79.174464254949783
30
0
0
SPLINE
5
739
100
AcDbEntity
8
INTERIOR_PROFILES
100
AcDbSpline
70
0
71
2
72
6
73
3
74
0
42
0.000000001
43
0.0000000001
44
0.0000000001
40
0
40
0
40
0
40
1
40
1
40
1
10
285.94574317336088
20
79.760973959539626
30
0
10
287.26539000868803
20
79.760973959539626
30
0
10
289.83137473464012
20
79.467719107244704
30
0
0
SPLINE
5
740
100
AcDbEntity
8
INTERIOR_PROFILES
100
AcDbSpline
70
0
71
2
72
6
73
3
74
0
42
0.000000001
43
0.0000000001
44
0.0000000001
40
0
40
0
40
0
40
1
40
1
40
1
10
281.98680266737944
20
75.582087545965393
30
0
10
281.98680266737938
20
79.760973959539626
30
0
10
285.94574317336088
20
79.760973959539626
30
0
0
SPLINE
5
741
100
AcDbEntity
8
INTERIOR_PROFILES
100
AcDbSpline
70
0
71
2
72
6
73
3
74
0
42
0.000000001
43
0.0000000001
44
0.0000000001
40
0
40
0
40
0
40
1
40
1
40
1
10
284.77272376418114
20
71.476519613836501
30
0
10
281.98680266737938
20
72.063029318426331
30
0
10
281.98680266737944
20
75.582087545965393
30
0
0
SPLINE
5
742
100
AcDbEntity
8
INTERIOR_PROFILES
100
AcDbSpline
70
0
71
2
72
6
73
3
74
0
42
0.000000001
43
0.0000000001
44
0.0000000001
40
0
40
0
40
0
40
1
40
1
40
1
10
286.67888030409813
20
70.08355429706404
30
0
10
286.67888030409813
20
71.109946280096267
30
0
10
284.77272376418114
20
71.476519613836501
30
0
0
SPLINE
5
743
100
AcDbEntity
8
INTERIOR_PROFILES
100
AcDbSpline
70
0
71
2
72
6
73
3
74
0
42
0.000000001
43
0.0000000001
44
0.0000000001
40
0
40
0
40
0
40
1
40
1
40
1
10
286.45894393324858
20
68.910534887884353
30
0
10
286.67888030409813
20
69.71699050006697
30
0
10
286.67888030409813
20
70.08355429706404
30
0
0
SPLINE
5
744
100
AcDbEntity
8
INTERIOR_PROFILES
100
AcDbSpline
70
0
71
2
72
6
73
3
74
0
42
0.000000001
43
0.0000000001
44
0.0000000001
40
0
40
0
40
0
40
1
40
1
40
1
10
285.87243422865868
20
67.297633200262283
30
0
10
286.09237059950834
20
67.884142904852126
30
0
10
286.45894393324858
20
68.910534887884353
30
0
0
LINE
5
745
100
AcDbEntity
8
INTERIOR_PROFILES
100
AcDbLine
10
285.87243422865868
20
67.297633200262283
30
0
11
281.71776738102579
21
54.945931708092786
31
0
0
LINE
5
746
100
AcDbEntity
8
INTERIOR_PROFILES
100
AcDbLine
10
281.71776738102579
20
54.945931708092786
30
0
11
281.71776738102579
21
42.834242780613948
31
0
0
LINE
5
747
100
AcDbEntity
8
INTERIOR_PROFILES
100
AcDbLine
10
281.71776738102579
20
42.834242780613948
30
0
11
283.23313102126122
21
42.737515478704665
31
0
0
SPLINE
5
748
100
AcDbEntity
8
INTERIOR_PROFILES
100
AcDbSpline
70
0
71
2
72
6
73
3
74
0
42
0.000000001
43
0.0000000001
44
0.0000000001
40
0
40
0
40
0
40
1
40
1
40
1
10
289.75806578993797
20
48.455994635198806
30
0
10
287.4853359162808
20
42.444260626409729
30
0
10
283.23313102126122
20
42.737515478704665
30
0
0
LINE
5
749
100
AcDbEntity
8
INTERIOR_PROFILES
100
AcDbLine
10
289.75806578993797
20
48.455994635198806
30
0
11
289.87742106740245
21
48.76687367796535
31
0
0
LINE
5
750
100
AcDbEntity
8
INTERIOR_PROFILES
100
AcDbLine
10
289.87742106740245
20
48.76687367796535
30
0
11
289.87742106740245
21
53.025879058448382
31
0
0
LINE
5
751
100
AcDbEntity
8
INTERIOR_PROFILES
100
AcDbLine
10
289.87742106740245
20
53.025879058448382
30
0
11
291.97824498371205
21
54.238790312049744
31
0
0
LINE
5
752
100
AcDbEntity
8
INTERIOR_PROFILES
100
AcDbLine
10
291.97824498371205
20
54.238790312049744
30
0
11
296.06304511427885
21
64.878275900457595
31
0
0
SPLINE
5
753
100
AcDbEntity
8
INTERIOR_PROFILES
100
AcDbSpline
70
0
71
2
72
6
73
3
74
0
42
0.000000001
43
0.0000000001
44
0.0000000001
40
0
40
0
40
0
40
1
40
1
40
1
10
297.5293193757534
20
68.690593748663161
30
0
10
297.23606452345854
20
67.884142904852126
30
0
10
296.06304511427885
20
64.878275900457595
30
0
0
SPLINE
5
754
100
AcDbEntity
8
INTERIOR_PROFILES
100
AcDbSpline
70
0
71
2
72
6
73
3
74
0
42
0.000000001
43
0.0000000001
44
0.0000000001
40
0
40
0
40
0
40
1
40
1
40
1
10
299.58211287856102
20
70.963318853948806
30
0
10
298.33577498793602
20
70.963318853948806
30
0
10
297.5293193757534
20
68.690593748663161
30
0
0
SPLINE
5
755
100
AcDbEntity
8
INTERIOR_PROFILES
100
AcDbSpline
70
0
71
2
72
6
73
3
74
0
42
0.000000001
43
0.0000000001
44
0.0000000001
40
0
40
0
40
0
40
1
40
1
40
1
10
300.53518638014793
20
70.816691427801345
30
0
10
300.02198562026024
20
70.963318853948806
30
0
10
299.58211287856102
20
70.963318853948806
30
0
0
LINE
5
756
100
AcDbEntity
8
INTERIOR_PROFILES
100
AcDbLine
10
300.53518638014793
20
70.816691427801345
30
0
11
300.901750177145
21
70.816691427801345
31
0
0
SPLINE
5
757
100
AcDbEntity
8
INTERIOR_PROFILES
100
AcDbSpline
70
0
71
2
72
6
73
3
74
0
42
0.000000001
43
0.0000000001
44
0.0000000001
40
0
40
0
40
0
40
1
40
1
40
1
10
301.26832351088524
20
70.743382483099197
30
0
10
301.12169608473778
20
70.743382483099197
30
0
10
300.901750177145
20
70.816691427801345
30
0
0
SPLINE
5
758
100
AcDbEntity
8
INTERIOR_PROFILES
100
AcDbSpline
70
0
71
2
72
6
73
3
74
0
42
0.000000001
43
0.0000000001
44
0.0000000001
40
0
40
0
40
0
40
1
40
1
40
1
10
305.00731810927391
20
75.142205267523025
30
0
10
305.00731810927391
20
70.743382483099197
30
0
10
301.26832351088524
20
70.743382483099197
30
0
0
SPLINE
5
759
100
AcDbEntity
8
INTERIOR_PROFILES
100
AcDbSpline
70
0
71
2
72
6
73
3
74
0
42
0.000000001
43
0.0000000001
44
0.0000000001
40
0
40
0
40
0
40
1
40
1
40
1
10
300.68181380629545
20
79.760973959539626
30
0
10
305.00731810927397
20
79.760973959539626
30
0
10
305.00731810927391
20
75.142205267523025
30
0
0
SPLINE
5
760
100
AcDbEntity
8
INTERIOR_PROFILES
100
AcDbSpline
70
0
71
3
72
11
73
7
74
0
42
0.000000001
43
0.0000000001
44
0.0000000001
40
-0.99906100254006491
40
-0.99906100254006491
40
-0.99906100254006491
40
-0.99906100254006491
40
-0.47979459588053214
40
-0.47979459588053214
40
-0.47979459588053214
40
-0.28303975208482146
40
-0.28303975208482146
40
-0.28303975208482146
40
-0.28303975208482146
10
238.44244385855987
20
153.78128335966369
30
0
10
237.46457939060733
20
153.65592720063864
30
0
10
236.71856395396517
20
153.56377571394245
30
0
10
236.23009817635932
20
153.50741843848695
30
0
10
236.04501397576442
20
153.48606414560993
30
0
10
235.89627628747542
20
153.4698191643231
30
0
10
235.79642444211976
20
153.45965754284458
30
0
0
SPLINE
5
761
100
AcDbEntity
8
INTERIOR_PROFILES
100
AcDbSpline
70
0
71
3
72
11
73
7
74
0
42
0.000000001
43
0.0000000001
44
0.0000000001
40
-1
40
-1
40
-1
40
-1
40
-0.73205866318891544
40
-0.73205866318891544
40
-0.73205866318891544
40
-0.0015215822430183804
40
-0.0015215822430183804
40
-0.0015215822430183804
40
-0.0015215822430183804
10
241.5029348433018
20
154.04249241885967
30
0
10
241.23800862328127
20
154.04249241885967
30
0
10
240.9939601205339
20
154.03273767099404
30
0
10
240.74408507048116
20
154.0178413930692
30
0
10
240.06280538501241
20
153.97722696783094
30
0
10
239.3303471958794
20
153.89701797209227
30
0
10
238.44244385855933
20
153.78128335966775
30
0
0
SPLINE
5
762
100
AcDbEntity
8
INTERIOR_PROFILES
100
AcDbSpline
70
0
71
3
72
11
73
7
74
0
42
0.000000001
43
0.0000000001
44
0.0000000001
40
-0.51794313742680709
40
-0.51794313742680709
40
-0.51794313742680709
40
-0.51794313742680709
40
-0.29433044434506922
40
-0.29433044434506922
40
-0.29433044434506922
40
-0
40
-0
40
-0
40
-0
10
247.15382752795335
20
151.51925398111985
30
0
10
246.51254986097348
20
152.28204079788887
30
0
10
245.67615285364823
20
152.93138147222444
30
0
10
244.80467058184047
20
153.34030762260898
30
0
10
243.65758111762003
20
153.87855710159985
30
0
10
242.51514485835446
20
154.04249241885967
30
0
10
241.5029348433018
20
154.04249241885967
30
0
0
LINE
5
763
100
AcDbEntity
8
INTERIOR_PROFILES
100
AcDbLine
10
247.15382752795335
20
151.51925398111985
30
0
11
247.15382752795341
21
152.98587905844843
31
0
0
LINE
5
764
100
AcDbEntity
8
INTERIOR_PROFILES
100
AcDbLine
10
247.15382752795341
20
152.98587905844843
30
0
11
240.22562429767791
21
156.98587905844843
31
0
0
LINE
5
765
100
AcDbEntity
8
INTERIOR_PROFILES
100
AcDbLine
10
240.22562429767791
20
156.98587905844843
30
0
11
234.3708352511035
21
153.60561502635966
31
0
0
SPLINE
5
766
100
AcDbEntity
8
INTERIOR_PROFILES
100
AcDbSpline
70
0
71
3
72
11
73
7
74
0
42
0.000000001
43
0.0000000001
44
0.0000000001
40
-0.8284546008005117
40
-0.8284546008005117
40
-0.8284546008005117
40
-0.8284546008005117
40
-0.78874873096995413
40
-0.78874873096995413
40
-0.78874873096995413
40
-0.18852155284148303
40
-0.18852155284148303
40
-0.18852155284148303
40
-0.18852155284148303
10
235.79642444211976
20
153.45965754284447
30
0
10
235.78097523539739
20
153.46034584958321
30
0
10
235.76450470588441
20
153.46114701663569
30
0
10
235.74699396759524
20
153.46207427659203
30
0
10
235.48228698409116
20
153.47609151458076
30
0
10
235.00335798422822
20
153.52229807111991
30
0
10
234.3708352511035
20
153.60561502635966
30
0
0
SPLINE
5
767
100
AcDbEntity
8
INTERIOR_PROFILES
100
AcDbSpline
70
0
71
3
72
11
73
7
74
0
42
0.000000001
43
0.0000000001
44
0.0000000001
40
-0.99650077411070415
40
-0.99650077411070415
40
-0.99650077411070415
40
-0.99650077411070415
40
-0.76563534939043199
40
-0.76563534939043199
40
-0.76563534939043199
40
-0.56643218151034092
40
-0.56643218151034092
40
-0.56643218151034092
40
-0.56643218151034092
10
145.80755736543654
20
151.04413960407641
30
0
10
144.93434778792945
20
151.68408711498299
30
0
10
144.00646771413247
20
152.24926855627714
30
0
10
143.03503574367062
20
152.73534721001533
30
0
10
142.19683172879715
20
153.15476214744416
30
0
10
141.3289125724236
20
153.51389601666355
30
0
10
140.43475628454061
20
153.81572493297443
30
0
0
SPLINE
5
768
100
AcDbEntity
8
INTERIOR_PROFILES
100
AcDbSpline
70
0
71
3
72
11
73
7
74
0
42
0.000000001
43
0.0000000001
44
0.0000000001
40
-0.64885254005589577
40
-0.64885254005589577
40
-0.64885254005589577
40
-0.64885254005589577
40
-0.52619962540751886
40
-0.52619962540751886
40
-0.52619962540751886
40
-0.0034918939527491684
40
-0.0034918939527491684
40
-0.0034918939527491684
40
-0.0034918939527491684
10
151.30353514369446
20
144.09081733307386
30
0
10
151.10972822646639
20
144.62687011543369
30
0
10
150.88178184874135
20
145.1506129413242
30
0
10
150.61949210740738
20
145.65745643811826
30
0
10
149.50169661049989
20
147.81746229832407
30
0
10
147.80876885080983
20
149.62174992487326
30
0
10
145.80755736543622
20
151.04413960407595
30
0
0
LINE
5
769
100
AcDbEntity
8
INTERIOR_PROFILES
100
AcDbLine
10
151.30353514369446
20
144.09081733307386
30
0
11
152.85382752795346
21
144.98587905844843
31
0
0
LINE
5
770
100
AcDbEntity
8
INTERIOR_PROFILES
100
AcDbLine
10
152.85382752795346
20
144.98587905844843
30
0
11
152.85382752795346
21
147.92015279251382
31
0
0
SPLINE
5
771
100
AcDbEntity
8
INTERIOR_PROFILES
100
AcDbSpline
70
0
71
3
72
17
73
13
74
0
42
0.000000001
43
0.0000000001
44
0.0000000001
40
-0.98190490447892653
40
-0.98190490447892653
40
-0.98190490447892653
40
-0.98190490447892653
40
-0.86704541962637383
40
-0.86704541962637383
40
-0.86704541962637383
40
-0.56679256261764688
40
-0.56679256261764688
40
-0.56679256261764688
40
-0.29316669496472431
40
-0.29316669496472431
40
-0.29316669496472431
40
-0.20078980691802026
40
-0.20078980691802026
40
-0.20078980691802026
40
-0.20078980691802026
10
146.99445247262221
20
156.36879082392687
30
0
10
147.00203031001308
20
155.89236145749092
30
0
10
147.03427823486089
20
155.41376712707438
30
0
10
147.09906396545162
20
154.92966178951076
30
0
10
147.26841959792927
20
153.66416759995172
30
0
10
147.66631453205639
20
152.32253695920133
30
0
10
148.49355339402507
20
151.08236721186728
30
0
10
149.24743115431502
20
149.9521780555279
30
0
10
150.38030178473079
20
148.9740284220303
30
0
10
151.60465052334513
20
148.39216007844851
30
0
10
152.01799421532587
20
148.19571963480902
30
0
10
152.43621704598527
20
148.04054088353269
30
0
10
152.85382752795346
20
147.92015279251382
30
0
0
LINE
5
772
100
AcDbEntity
8
INTERIOR_PROFILES
100
AcDbLine
10
146.99445247262221
20
156.36879082392687
30
0
11
145.92562429767793
21
156.98587905844843
31
0
0
LINE
5
773
100
AcDbEntity
8
INTERIOR_PROFILES
100
AcDbLine
10
145.92562429767793
20
156.98587905844843
30
0
11
140.43475628454064
21
153.81572493297443
31
0
0
SPLINE
5
774
100
AcDbEntity
8
INTERIOR_PROFILES
100
AcDbSpline
70
0
71
3
72
8
73
4
74
0
42
0.000000001
43
0.0000000001
44
0.0000000001
40
-1
40
-1
40
-1
40
-1
40
-0.7396856415343982
40
-0.7396856415343982
40
-0.7396856415343982
40
-0.7396856415343982
10
51.605574041604996
20
155.06888440189189
30
0
10
50.218948856187104
20
155.06888440189189
30
0
10
48.838407542999207
20
154.91231503993367
30
0
10
47.493688246531875
20
154.60030466704484
30
0
0
SPLINE
5
775
100
AcDbEntity
8
INTERIOR_PROFILES
100
AcDbSpline
70
0
71
3
72
8
73
4
74
0
42
0.000000001
43
0.0000000001
44
0.0000000001
40
-0.2460415830986088
40
-0.2460415830986088
40
-0.2460415830986088
40
-0.2460415830986088
40
-0
40
-0
40
-0
40
-0
10
55.719217368483797
20
154.62244199706586
30
0
10
54.380555459224965
20
154.9214060026305
30
0
10
52.99932845148588
20
155.06888440189189
30
0
10
51.605574041604996
20
155.06888440189189
30
0
0
LINE
5
776
100
AcDbEntity
8
INTERIOR_PROFILES
100
AcDbLine
10
55.719217368483797
20
154.62244199706586
30
0
11
51.625624297677923
21
156.98587905844843
31
0
0
LINE
5
777
100
AcDbEntity
8
INTERIOR_PROFILES
100
AcDbLine
10
51.625624297677923
20
156.98587905844843
30
0
11
47.493688246531875
21
154.60030466704484
31
0
0
LINE
5
778
100
AcDbEntity
8
INTERIOR_PROFILES
100
AcDbLine
10
379.17382752795339
20
53.025879058448417
30
0
11
372.24562429767792
21
57.025879058448403
31
0
0
LINE
5
779
100
AcDbEntity
8
INTERIOR_PROFILES
100
AcDbLine
10
372.24562429767792
20
57.025879058448403
30
0
11
370.90936632881068
21
56.254390160416101
31
0
0
SPLINE
5
780
100
AcDbEntity
8
INTERIOR_PROFILES
100
AcDbSpline
70
0
71
3
72
11
73
7
74
0
42
0.000000001
43
0.0000000001
44
0.0000000001
40
-0.97659348240113975
40
-0.97659348240113975
40
-0.97659348240113975
40
-0.97659348240113975
40
-0.62130784730376465
40
-0.62130784730376465
40
-0.62130784730376465
40
-0.27174051950417005
40
-0.27174051950417005
40
-0.27174051950417005
40
-0.27174051950417005
10
375.25925805271788
20
53.825219737928776
30
0
10
374.68942346930879
20
54.412407168395021
30
0
10
374.01905225246605
20
54.943744884494961
30
0
10
373.2699926157602
20
55.365615485761843
30
0
10
372.53298906228417
20
55.780696097511466
30
0
10
371.72674853405857
20
56.075721650015353
30
0
10
370.90936632881068
20
56.254390160416122
30
0
0
SPLINE
5
781
100
AcDbEntity
8
INTERIOR_PROFILES
100
AcDbSpline
70
0
71
3
72
11
73
7
74
0
42
0.000000001
43
0.0000000001
44
0.0000000001
40
-1
40
-1
40
-1
40
-1
40
-0.62124597844931995
40
-0.62124597844931995
40
-0.62124597844931995
40
-0.023406553076642293
40
-0.023406553076642293
40
-0.023406553076642293
40
-0.023406553076642293
10
377.89588317275047
20
47.576220541570876
30
0
10
377.89588317275047
20
48.442578019171108
30
0
10
377.77278796496955
20
49.344828754536927
30
0
10
377.49905425503528
20
50.218814984834978
30
0
10
377.06698279297609
20
51.598347335582886
30
0
10
376.24782626248339
20
52.86586222384355
30
0
10
375.25925805271754
20
53.825219737928492
30
0
0
SPLINE
5
782
100
AcDbEntity
8
INTERIOR_PROFILES
100
AcDbSpline
70
0
71
3
72
8
73
4
74
0
42
0.000000001
43
0.0000000001
44
0.0000000001
40
-0.4764059490843372
40
-0.4764059490843372
40
-0.4764059490843372
40
-0.4764059490843372
40
-0
40
-0
40
-0
40
-0
10
377.22383163212663
20
43.90004840307413
30
0
10
377.67621622945398
20
45.085638164967207
30
0
10
377.89588317275047
20
46.353370727848784
30
0
10
377.89588317275047
20
47.576220541570876
30
0
0
LINE
5
783
100
AcDbEntity
8
INTERIOR_PROFILES
100
AcDbLine
10
377.22383163212663
20
43.90004840307413
30
0
11
379.17382752795345
21
45.02587905844841
31
0
0
LINE
5
784
100
AcDbEntity
8
INTERIOR_PROFILES
100
AcDbLine
10
379.17382752795345
20
45.02587905844841
30
0
11
379.17382752795339
21
53.025879058448417
31
0
0
LINE
5
785
100
AcDbEntity
8
INTERIOR_PROFILES
100
AcDbLine
10
343.14233297838479
20
40.225160711918818
30
0
11
337.02921783712668
21
36.695752039526397
31
0
0
LINE
5
786
100
AcDbEntity
8
INTERIOR_PROFILES
100
AcDbLine
10
337.02921783712668
20
36.695752039526397
30
0
11
337.02921783712662
21
28.815752039526188
31
0
0
LINE
5
787
100
AcDbEntity
8
INTERIOR_PROFILES
100
AcDbLine
10
337.02921783712662
20
28.815752039526188
30
0
11
350.88562429767762
21
28.815752039526188
31
0
0
LINE
5
788
100
AcDbEntity
8
INTERIOR_PROFILES
100
AcDbLine
10
350.88562429767762
20
28.815752039526188
30
0
11
350.88562429767768
21
36.695752039526226
31
0
0
LINE
5
789
100
AcDbEntity
8
INTERIOR_PROFILES
100
AcDbLine
10
350.88562429767768
20
36.695752039526226
30
0
11
349.30126664852475
21
37.61048135475739
31
0
0
SPLINE
5
790
100
AcDbEntity
8
INTERIOR_PROFILES
100
AcDbSpline
70
0
71
3
72
11
73
7
74
0
42
0.000000001
43
0.0000000001
44
0.0000000001
40
-0.4830749337797412
40
-0.4830749337797412
40
-0.4830749337797412
40
-0.4830749337797412
40
-0.29701259650998374
40
-0.29701259650998374
40
-0.29701259650998374
40
-0.04942386760997481
40
-0.04942386760997481
40
-0.04942386760997481
40
-0.04942386760997481
10
343.14233297838484
20
40.22516071191874
30
0
10
343.87290309769116
20
39.494633767433143
30
0
10
344.73939359209453
20
38.88987961190486
30
0
10
345.64619889346704
20
38.475857058633125
30
0
10
346.8528631503022
20
37.92492708965252
30
0
10
348.09130229756158
20
37.677553594626922
30
0
10
349.30126664852475
20
37.61048135475739
30
0
0
LWPOLYLINE
5
791
100
AcDbEntity
8
INTERIOR_PROFILES
100
AcDbPolyline
90
6
70
1
43
0.0
10
117.63742106740203
20
58.015752039526305
10
110.70921783712657
20
62.01575203952639
10
110.70921783712669
20
70.015752039526404
10
117.63742106740224
20
74.015752039526305
10
124.5656242976777
20
70.015752039526234
10
124.56562429767759
20
62.01575203952622
0
LWPOLYLINE
5
792
100
AcDbEntity
8
INTERIOR_PROFILES
100
AcDbPolyline
90
6
70
1
43
0.0
10
381.67742106740218
20
107.33575203952631
10
388.60562429767765
20
103.33575203952623
10
388.60562429767754
20
95.335752039526227
10
381.67742106740207
20
91.335752039526312
10
374.74921783712659
20
95.335752039526383
10
374.74921783712665
20
103.33575203952641
0
LWPOLYLINE
5
793
100
AcDbEntity
8
INTERIOR_PROFILES
100
AcDbPolyline
90
6
70
1
43
0.0
10
230.79742106740207
20
91.335752039526298
10
223.8692178371266
20
95.335752039526383
10
223.86921783712668
20
103.33575203952641
10
230.79742106740224
20
107.33575203952633
10
237.72562429767771
20
103.33575203952623
10
237.7256242976776
20
95.335752039526227
0
SPLINE
5
794
100
AcDbEntity
8
INTERIOR_PROFILES
100
AcDbSpline
70
0
71
2
72
6
73
3
74
0
42
0.000000001
43
0.0000000001
44
0.0000000001
40
0
40
0
40
0
40
1
40
1
40
1
10
198.32111701369286
20
67.004378347967346
30
0
10
199.42082270979881
20
67.004378347967361
30
0
10
199.64076384902
20
67.224319487188538
30
0
0
LINE
5
795
100
AcDbEntity
8
INTERIOR_PROFILES
100
AcDbLine
10
198.32111701369286
20
67.004378347967346
30
0
11
195.40183911848641
21
67.004378347967361
31
0
0
LINE
5
796
100
AcDbEntity
8
INTERIOR_PROFILES
100
AcDbLine
10
195.40183911848641
20
67.004378347967361
30
0
11
195.40183911848641
21
59.233115225408753
31
0
0
LINE
5
797
100
AcDbEntity
8
INTERIOR_PROFILES
100
AcDbLine
10
195.40183911848641
20
59.233115225408753
30
0
11
207.85190925002098
21
59.233115225408767
31
0
0
SPLINE
5
798
100
AcDbEntity
8
INTERIOR_PROFILES
100
AcDbSpline
70
0
71
2
72
6
73
3
74
0
42
0.000000001
43
0.0000000001
44
0.0000000001
40
0
40
0
40
0
40
1
40
1
40
1
10
210.85777148604393
20
60.259507208440994
30
0
10
210.12463435530663
20
59.233115225408753
30
0
10
207.85190925002098
20
59.233115225408767
30
0
0
SPLINE
5
799
100
AcDbEntity
8
INTERIOR_PROFILES
100
AcDbSpline
70
0
71
2
72
6
73
3
74
0
42
0.000000001
43
0.0000000001
44
0.0000000001
40
0
40
0
40
0
40
1
40
1
40
1
10
211.66422232985497
20
64.36508467731305
30
0
10
211.66422232985497
20
61.285903959844788
30
0
10
210.85777148604393
20
60.259507208440994
30
0
0
SPLINE
5
800
100
AcDbEntity
8
INTERIOR_PROFILES
100
AcDbSpline
70
0
71
2
72
6
73
3
74
0
42
0.000000001
43
0.0000000001
44
0.0000000001
40
0
40
0
40
0
40
1
40
1
40
1
10
206.97214469313622
20
76.315224676702712
30
0
10
211.66422232985497
20
71.843088179205139
30
0
10
211.66422232985497
20
64.36508467731305
30
0
0
SPLINE
5
801
100
AcDbEntity
8
INTERIOR_PROFILES
100
AcDbSpline
70
0
71
2
72
6
73
3
74
0
42
0.000000001
43
0.0000000001
44
0.0000000001
40
0.053317458484339934
40
0.053317458484339934
40
0.053317458484339934
40
1
40
1
40
1
10
195.40183911848644
20
80.774652756820188
30
0
10
202.59963700910498
20
80.548922736292781
30
0
10
206.97214469313622
20
76.315224676702712
30
0
0
LINE
5
802
100
AcDbEntity
8
INTERIOR_PROFILES
100
AcDbLine
10
195.40183911848644
20
80.774652756820188
30
0
11
195.40183911848635
21
72.848847582068018
31
0
0
SPLINE
5
803
100
AcDbEntity
8
INTERIOR_PROFILES
100
AcDbSpline
70
0
71
2
72
6
73
3
74
0
42
0.000000001
43
0.0000000001
44
0.0000000001
40
0
40
0
40
0
40
0.74687664450890168
40
0.74687664450890168
40
0.74687664450890168
10
198.24779853224754
20
71.476519613836501
30
0
10
196.98840363185664
20
72.571645614176418
30
0
10
195.40183911848635
20
72.848847582068018
30
0
0
SPLINE
5
804
100
AcDbEntity
8
INTERIOR_PROFILES
100
AcDbSpline
70
0
71
2
72
6
73
3
74
0
42
0.000000001
43
0.0000000001
44
0.0000000001
40
0
40
0
40
0
40
1
40
1
40
1
10
199.93401870131493
20
68.177397757147034
30
0
10
199.93401870131493
20
70.08355429706404
30
0
10
198.24779853224754
20
71.476519613836501
30
0
0
SPLINE
5
805
100
AcDbEntity
8
INTERIOR_PROFILES
100
AcDbSpline
70
0
71
2
72
6
73
3
74
0
42
0.000000001
43
0.0000000001
44
0.0000000001
40
0
40
0
40
0
40
1
40
1
40
1
10
199.64076384902
20
67.224319487188538
30
0
10
199.93401870131493
20
67.51757433948346
30
0
10
199.93401870131493
20
68.177397757147034
30
0
0
LWPOLYLINE
5
806
100
AcDbEntity
8
INTERIOR_PROFILES
100
AcDbPolyline
90
6
70
1
43
0.0
10
334.52562429767795
20
123.6658790584484
10
341.45382752795342
20
119.66587905844844
10
341.45382752795342
20
111.66587905844843
10
334.52562429767795
20
107.66587905844841
10
327.59742106740242
20
111.66587905844838
10
327.59742106740242
20
119.66587905844838
0
LWPOLYLINE
5
807
100
AcDbEntity
8
INTERIOR_PROFILES
100
AcDbPolyline
90
6
70
1
43
0.0
10
332.02562429767772
20
103.33575203952623
10
332.02562429767767
20
95.335752039526227
10
325.09742106740202
20
91.335752039526298
10
318.16921783712655
20
95.335752039526383
10
318.16921783712672
20
103.3357520395264
10
325.09742106740225
20
107.33575203952631
0
LWPOLYLINE
5
808
100
AcDbEntity
8
INTERIOR_PROFILES
100
AcDbPolyline
90
7
70
1
43
0.0
10
266.01382752795348
20
45.02587905844841
10
259.08562429767795
20
41.025879058448389
10
252.15742106740242
20
45.025879058448375
10
252.1574210674024
20
53.025879058448382
10
259.0856242976779
20
57.025879058448403
10
262.78954803012834
20
54.887417694460325
10
266.01382752795348
20
46.175663327164891
0
LWPOLYLINE
5
809
100
AcDbEntity
8
INTERIOR_PROFILES
100
AcDbPolyline
90
6
70
1
43
0.0
10
51.625624297677959
20
74.345879058448389
10
44.697421067402452
20
78.345879058448389
10
44.697421067402452
20
86.345879058448389
10
51.625624297677959
20
90.345879058448418
10
58.553827527953466
20
86.345879058448418
10
58.553827527953501
20
78.345879058448418
0
LWPOLYLINE
5
810
100
AcDbEntity
8
INTERIOR_PROFILES
100
AcDbPolyline
90
6
70
1
43
0.0
10
101.27742106740243
20
53.025879058448382
10
108.20562429767793
20
57.025879058448403
10
115.13382752795344
20
53.025879058448417
10
115.13382752795346
20
45.02587905844841
10
108.20562429767796
20
41.025879058448396
10
101.27742106740244
20
45.025879058448375
0
SPLINE
5
811
100
AcDbEntity
8
INTERIOR_PROFILES
100
AcDbSpline
70
0
71
3
72
8
73
4
74
0
42
0.000000001
43
0.0000000001
44
0.0000000001
40
-0.1314755456939769
40
-0.1314755456939769
40
-0.1314755456939769
40
-0.1314755456939769
40
-1.8761930002844367e-07
40
-1.8761930002844367e-07
40
-1.8761930002844367e-07
40
-1.8761930002844367e-07
10
63.845832986583218
20
111.49936435927185
30
0
10
64.412721922444376
20
112.05289324726883
30
0
10
64.950077882979087
20
112.64185501416884
30
0
10
65.455235742665565
20
113.26295128471176
30
0
0
LINE
5
812
100
AcDbEntity
8
INTERIOR_PROFILES
100
AcDbLine
10
63.845832986583218
20
111.49936435927185
30
0
11
70.485624297677958
21
107.66587905844841
31
0
0
LINE
5
813
100
AcDbEntity
8
INTERIOR_PROFILES
100
AcDbLine
10
70.485624297677958
20
107.66587905844841
30
0
11
72.233689370226969
21
108.67512489864555
31
0
0
SPLINE
5
814
100
AcDbEntity
8
INTERIOR_PROFILES
100
AcDbSpline
70
0
71
3
72
11
73
7
74
0
42
0.000000001
43
0.0000000001
44
0.0000000001
40
-1.0032685333398181
40
-1.0032685333398181
40
-1.0032685333398181
40
-1.0032685333398181
40
-1
40
-1
40
-1
40
-0.8130956881127509
40
-0.8130956881127509
40
-0.8130956881127509
40
-0.8130956881127509
10
70.217024093376665
20
110.17699507491913
30
0
10
70.224532457650497
20
110.17044522390705
30
0
10
70.232040821924926
20
110.16389537289442
30
0
10
70.239549186199284
20
110.15734552188181
30
0
10
70.864356891258097
20
109.61230039219623
30
0
10
71.531822899436847
20
109.11694302423129
30
0
10
72.233689370226969
20
108.67512489864555
30
0
0
SPLINE
5
815
100
AcDbEntity
8
INTERIOR_PROFILES
100
AcDbSpline
70
0
71
3
72
11
73
7
74
0
42
0.000000001
43
0.0000000001
44
0.0000000001
40
-0.44380169739206254
40
-0.44380169739206254
40
-0.44380169739206254
40
-0.44380169739206254
40
-0
40
-0
40
-0
40
0.0032342147526962396
40
0.0032342147526962396
40
0.0032342147526962396
40
0.0032342147526962396
10
66.646491458886999
20
114.86895845489295
30
0
10
67.503198016229192
20
113.09983042341344
30
0
10
68.725052052502946
20
111.5102487505267
30
0
10
70.19473553787023
20
110.19691253830129
30
0
10
70.202165056365374
20
110.19027338383283
30
0
10
70.209594574860503
20
110.18363422936439
30
0
10
70.217024093355818
20
110.17699507489581
30
0
0
SPLINE
5
816
100
AcDbEntity
8
INTERIOR_PROFILES
100
AcDbSpline
70
0
71
3
72
8
73
4
74
0
42
0.000000001
43
0.0000000001
44
0.0000000001
40
-1
40
-1
40
-1
40
-1
40
-0.89047849683363089
40
-0.89047849683363089
40
-0.89047849683363089
40
-0.89047849683363089
10
65.455235742664854
20
113.26295128471232
30
0
10
65.875734019127094
20
113.77995725942941
30
0
10
66.273149934293485
20
114.31583797515407
30
0
10
66.646491458874209
20
114.86895845495076
30
0
0
LWPOLYLINE
5
817
100
AcDbEntity
8
INTERIOR_PROFILES
100
AcDbPolyline
90
6
70
1
43
0.0
10
117.63742106740224
20
107.33575203952631
10
124.56562429767772
20
103.33575203952623
10
124.5656242976776
20
95.335752039526227
10
117.63742106740203
20
91.335752039526312
10
110.70921783712657
20
95.335752039526383
10
110.70921783712669
20
103.33575203952641
0
SPLINE
5
818
100
AcDbEntity
8
INTERIOR_PROFILES
100
AcDbSpline
70
0
71
3
72
8
73
4
74
0
42
0.000000001
43
0.0000000001
44
0.0000000001
40
-0.99393300985674204
40
-0.99393300985674204
40
-0.99393300985674204
40
-0.99393300985674204
40
-0.92730483607357805
40
-0.92730483607357805
40
-0.92730483607357805
40
-0.92730483607357805
10
252.7117868683132
20
81.779335658942941
30
0
10
252.53136845565862
20
81.953299128457772
30
0
10
252.3465126198617
20
82.122743793702213
30
0
10
252.15742106740649
20
82.287371062879515
30
0
0
SPLINE
5
819
100
AcDbEntity
8
INTERIOR_PROFILES
100
AcDbSpline
70
0
71
3
72
8
73
4
74
0
42
0.000000001
43
0.0000000001
44
0.0000000001
40
-0.024223073132974518
40
-0.024223073132974518
40
-0.024223073132974518
40
-0.024223073132974518
40
-0.0060672128721135478
40
-0.0060672128721135478
40
-0.0060672128721135478
40
-0.0060672128721135478
10
252.86080238239649
20
81.638947137096821
30
0
10
252.81141478154862
20
81.686113347885623
30
0
10
252.761785822013
20
81.732866414178901
30
0
10
252.71178686831334
20
81.779335658943126
30
0
0
SPLINE
5
820
100
AcDbEntity
8
INTERIOR_PROFILES
100
AcDbSpline
70
0
71
3
72
14
73
10
74
0
42
0.000000001
43
0.0000000001
44
0.0000000001
40
-1
40
-1
40
-1
40
-1
40
-0.86030980536488033
40
-0.86030980536488033
40
-0.86030980536488033
40
-0.58464533019143028
40
-0.58464533019143028
40
-0.58464533019143028
40
-0.47915515963395322
40
-0.47915515963395322
40
-0.47915515963395322
40
-0.47915515963395322
10
260.13928756117826
20
84.760973959539626
30
0
10
259.46709437338586
20
84.760973959539626
30
0
10
258.78721033660486
20
84.710147016113368
30
0
10
258.09926211733125
20
84.587456292823163
30
0
10
256.74166586436638
20
84.345338555548963
30
0
10
255.32376806936048
20
83.794910976627989
30
0
10
254.11983171197161
20
82.855457953146313
30
0
10
253.6591141980395
20
82.495951855686826
30
0
10
253.23304354700596
20
82.083375248647798
30
0
10
252.86080238239649
20
81.638947137096807
30
0
0
SPLINE
5
821
100
AcDbEntity
8
INTERIOR_PROFILES
100
AcDbSpline
70
0
71
3
72
11
73
7
74
0
42
0.000000001
43
0.0000000001
44
0.0000000001
40
-0.99770248157998309
40
-0.99770248157998309
40
-0.99770248157998309
40
-0.99770248157998309
40
-0.84595148754969773
40
-0.84595148754969773
40
-0.84595148754969773
40
-0
40
-0
40
-0
40
-0
10
264.08838070160215
20
84.425304088309119
30
0
10
263.84966775673968
20
84.457095875589118
30
0
10
263.61812151857771
20
84.486724761082797
30
0
10
263.39339375546803
20
84.514187919313102
30
0
10
262.14062578046298
20
84.667284112891238
30
0
10
261.13546550536995
20
84.760973959539626
30
0
10
260.13928756117826
20
84.760973959539626
30
0
0
SPLINE
5
822
100
AcDbEntity
8
INTERIOR_PROFILES
100
AcDbSpline
70
0
71
3
72
8
73
4
74
0
42
0.000000001
43
0.0000000001
44
0.0000000001
40
-0.55841611602170604
40
-0.55841611602170604
40
-0.55841611602170604
40
-0.55841611602170604
40
-0.0023871030404239535
40
-0.0023871030404239535
40
-0.0023871030404239535
40
-0.0023871030404239535
10
266.01382752795348
20
84.216356614508513
30
0
10
265.52971150196407
20
84.255652621164344
30
0
10
264.87330062127495
20
84.324141438927711
30
0
10
264.08838070160198
20
84.425304088307925
30
0
0
LINE
5
823
100
AcDbEntity
8
INTERIOR_PROFILES
100
AcDbLine
10
266.01382752795348
20
84.216356614508513
30
0
11
266.01382752795342
21
86.345879058448418
31
0
0
LINE
5
824
100
AcDbEntity
8
INTERIOR_PROFILES
100
AcDbLine
10
266.01382752795342
20
86.345879058448418
30
0
11
259.0856242976779
21
90.345879058448418
31
0
0
LINE
5
825
100
AcDbEntity
8
INTERIOR_PROFILES
100
AcDbLine
10
259.0856242976779
20
90.345879058448418
30
0
11
252.1574210674024
21
86.345879058448389
31
0
0
LINE
5
826
100
AcDbEntity
8
INTERIOR_PROFILES
100
AcDbLine
10
252.1574210674024
20
86.345879058448389
30
0
11
252.15742106740646
21
82.287371062879515
31
0
0
LINE
5
827
100
AcDbEntity
8
INTERIOR_PROFILES
100
AcDbLine
10
162.28562429767771
20
169.85575203952618
30
0
11
148.42921783712666
21
169.85575203952618
31
0
0
LINE
5
828
100
AcDbEntity
8
INTERIOR_PROFILES
100
AcDbLine
10
148.42921783712666
20
169.85575203952618
30
0
11
148.42921783712657
21
162.25707310510148
31
0
0
SPLINE
5
829
100
AcDbEntity
8
INTERIOR_PROFILES
100
AcDbSpline
70
0
71
3
72
14
73
10
74
0
42
0.000000001
43
0.0000000001
44
0.0000000001
40
-1
40
-1
40
-1
40
-1
40
-0.86180347650019984
40
-0.86180347650019984
40
-0.86180347650019984
40
-0.58142883201192985
40
-0.58142883201192985
40
-0.58142883201192985
40
-0.38805935322230256
40
-0.38805935322230256
40
-0.38805935322230256
40
-0.38805935322230256
10
156.68475475907326
20
166.50583794650859
30
0
10
156.01134450417868
20
166.50583794650859
30
0
10
155.33366594488623
20
166.45784432933056
30
0
10
154.64971962772438
20
166.34302734341017
30
0
10
153.2621217296948
20
166.11008536488998
30
0
10
151.81651151078452
20
165.57799793146319
30
0
10
150.5695665476641
20
164.63824155386357
30
0
10
149.7095704590804
20
163.9901080492902
30
0
10
148.98164547874444
20
163.15835472528784
30
0
10
148.42921783712654
20
162.25707310510145
30
0
0
SPLINE
5
830
100
AcDbEntity
8
INTERIOR_PROFILES
100
AcDbSpline
70
0
71
3
72
11
73
7
74
0
42
0.000000001
43
0.0000000001
44
0.0000000001
40
-1.0030438583674828
40
-1.0030438583674828
40
-1.0030438583674828
40
-1.0030438583674828
40
-1
40
-1
40
-1
40
-0
40
-0
40
-0
40
-0
10
159.57694151157264
20
166.3001769540449
30
0
10
159.57500747838705
20
166.30047449612329
30
0
10
159.57307344519992
20
166.3007720382019
30
0
10
159.57113941201303
20
166.30106958028048
30
0
10
158.63105333225599
20
166.44569748434361
30
0
10
157.67510103185973
20
166.50583794650859
30
0
10
156.68475475907326
20
166.50583794650859
30
0
0
SPLINE
5
831
100
AcDbEntity
8
INTERIOR_PROFILES
100
AcDbSpline
70
0
71
3
72
11
73
7
74
0
42
0.000000001
43
0.0000000001
44
0.0000000001
40
-0.87287432303469326
40
-0.87287432303469326
40
-0.87287432303469326
40
-0.87287432303469326
40
-0
40
-0
40
-0
40
0.0012361467147853087
40
0.0012361467147853087
40
0.0012361467147853087
40
0.0012361467147853087
10
162.28562429767763
20
165.99620607622802
30
0
10
161.78045831545603
20
166.01423323646219
30
0
10
160.82462071517233
20
166.10522707861332
30
0
10
159.58274160795045
20
166.29927068911678
30
0
10
159.58080824249839
20
166.29957277746865
30
0
10
159.57887487704636
20
166.29987486582053
30
0
10
159.57694151159589
20
166.30017695417217
30
0
0
LINE
5
832
100
AcDbEntity
8
INTERIOR_PROFILES
100
AcDbLine
10
162.28562429767763
20
165.99620607622802
30
0
11
162.28562429767771
21
169.85575203952618
31
0
0
LWPOLYLINE
5
833
100
AcDbEntity
8
INTERIOR_PROFILES
100
AcDbPolyline
90
5
70
1
43
0.0
10
205.0092178371267
20
169.85575203952618
10
218.86562429767767
20
169.85575203952618
10
218.86562429767761
20
161.97575203952624
10
211.93742106740203
20
157.9757520395263
10
205.00921783712658
20
161.97575203952641
0
LWPOLYLINE
5
834
100
AcDbEntity
8
INTERIOR_PROFILES
100
AcDbPolyline
90
5
70
1
43
0.0
10
280.44921783712658
20
161.97575203952638
10
280.44921783712664
20
169.85575203952618
10
294.3056242976777
20
169.85575203952621
10
294.30562429767758
20
161.97575203952624
10
287.37742106740205
20
157.9757520395263
0
LWPOLYLINE
5
835
100
AcDbEntity
8
INTERIOR_PROFILES
100
AcDbPolyline
90
6
70
1
43
0.0
10
54.129217837126653
20
70.015752039526404
10
61.057421067402231
20
74.015752039526305
10
67.985624297677674
20
70.01575203952622
10
67.985624297677589
20
62.015752039526213
10
61.057421067402018
20
58.015752039526305
10
54.129217837126546
20
62.01575203952639
0
SPLINE
5
836
100
AcDbEntity
8
INTERIOR_PROFILES
100
AcDbSpline
70
0
71
3
72
8
73
4
74
0
42
0.000000001
43
0.0000000001
44
0.0000000001
40
-0.56528160685498885
40
-0.56528160685498885
40
-0.56528160685498885
40
-0.56528160685498885
40
-0
40
-0
40
-0
40
-0
10
379.17382752795339
20
84.495247562098683
30
0
10
377.23723765154597
20
85.369949912787888
30
0
10
375.10544419310207
20
85.787365942571853
30
0
10
372.96920165419579
20
85.787365942571853
30
0
0
LINE
5
837
100
AcDbEntity
8
INTERIOR_PROFILES
100
AcDbLine
10
379.17382752795339
20
84.495247562098683
30
0
11
379.17382752795339
21
86.345879058448418
31
0
0
LINE
5
838
100
AcDbEntity
8
INTERIOR_PROFILES
100
AcDbLine
10
379.17382752795339
20
86.345879058448418
30
0
11
372.24562429767786
21
90.345879058448418
31
0
0
LINE
5
839
100
AcDbEntity
8
INTERIOR_PROFILES
100
AcDbLine
10
372.24562429767786
20
90.345879058448418
30
0
11
365.31742106740239
21
86.345879058448389
31
0
0
LINE
5
840
100
AcDbEntity
8
INTERIOR_PROFILES
100
AcDbLine
10
365.31742106740239
20
86.345879058448389
30
0
11
365.31742106740239
21
84.128373745462312
31
0
0
SPLINE
5
841
100
AcDbEntity
8
INTERIOR_PROFILES
100
AcDbSpline
70
0
71
3
72
11
73
7
74
0
42
0.000000001
43
0.0000000001
44
0.0000000001
40
-1
40
-1
40
-1
40
-1
40
-0.55172352361680854
40
-0.55172352361680854
40
-0.55172352361680854
40
-0.46535856186412178
40
-0.46535856186412178
40
-0.46535856186412178
40
-0.46535856186412178
10
372.96920165419579
20
85.787365942571853
30
0
10
370.71816985670949
20
85.787365942571853
30
0
10
368.52019683084023
20
85.431635174439862
30
0
10
366.47776102296967
20
84.63624085833429
30
0
10
366.08426526817948
20
84.483000161336292
30
0
10
365.6969519200976
20
84.313538043361106
30
0
10
365.31742106740239
20
84.128373745462298
30
0
0
LWPOLYLINE
5
842
100
AcDbEntity
8
INTERIOR_PROFILES
100
AcDbPolyline
90
6
70
1
43
0.0
10
360.31382752795344
20
144.98587905844843
10
353.38562429767791
20
140.9858790584484
10
346.45742106740244
20
144.9858790584484
10
346.45742106740244
20
152.9858790584484
10
353.38562429767791
20
156.9858790584484
10
360.31382752795344
20
152.98587905844843
0
LWPOLYLINE
5
843
100
AcDbEntity
8
INTERIOR_PROFILES
100
AcDbPolyline
90
6
70
1
43
0.0
10
391.10562429767799
20
140.9858790584484
10
384.17742106740241
20
144.9858790584484
10
384.17742106740241
20
152.9858790584484
10
391.10562429767788
20
156.98587905844843
10
398.03382752795346
20
152.98587905844843
10
398.03382752795346
20
144.98587905844843
0
LWPOLYLINE
5
844
100
AcDbEntity
8
INTERIOR_PROFILES
100
AcDbPolyline
90
6
70
1
43
0.0
10
322.59382752795347
20
144.9858790584484
10
315.66562429767794
20
140.9858790584484
10
308.73742106740247
20
144.9858790584484
10
308.73742106740241
20
152.9858790584484
10
315.66562429767794
20
156.98587905844843
10
322.59382752795347
20
152.9858790584484
0
LWPOLYLINE
5
845
100
AcDbEntity
8
INTERIOR_PROFILES
100
AcDbPolyline
90
6
70
1
43
0.0
10
72.989217837126546
20
62.015752039526376
10
72.989217837126645
20
70.01575203952639
10
79.917421067402216
20
74.015752039526305
10
86.845624297677659
20
70.015752039526234
10
86.845624297677588
20
62.01575203952622
10
79.917421067402046
20
58.015752039526305
0
LWPOLYLINE
5
846
100
AcDbEntity
8
INTERIOR_PROFILES
100
AcDbPolyline
90
5
70
1
43
0.0
10
16.409217837126668
20
36.695752039526397
10
23.337421067402211
20
40.695752039526312
10
30.265624297677682
20
36.695752039526226
10
30.265624297677576
20
28.81575203952621
10
16.409217837126562
20
28.81575203952621
0
LWPOLYLINE
5
847
100
AcDbEntity
8
INTERIOR_PROFILES
100
AcDbPolyline
90
4
70
1
43
0.0
10
393.60921783712661
20
28.815752039526188
10
393.60921783712672
20
36.695752039526397
10
400.51999999999998
20
40.685693981572051
10
400.51999999999998
20
28.815752039526185
0
SPLINE
5
848
100
AcDbEntity
8
INTERIOR_PROFILES
100
AcDbSpline
70
0
71
3
72
8
73
4
74
0
42
0.000000001
43
0.0000000001
44
0.0000000001
40
-0.51819493583481635
40
-0.51819493583481635
40
-0.51819493583481635
40
-0.51819493583481635
40
-0
40
-0
40
-0
40
-0
10
226.34198708931103
20
38.123406032918773
30
0
10
227.09798740330177
20
38.158662066769594
30
0
10
227.9253953312228
20
38.177397757147034
30
0
10
228.81965026259422
20
38.177397757147034
30
0
0
LINE
5
849
100
AcDbEntity
8
INTERIOR_PROFILES
100
AcDbLine
10
226.34198708931103
20
38.123406032918773
30
0
11
223.86921783712668
21
36.69575203952639
31
0
0
LINE
5
850
100
AcDbEntity
8
INTERIOR_PROFILES
100
AcDbLine
10
223.86921783712668
20
36.69575203952639
30
0
11
223.8692178371266
21
28.815752039526195
31
0
0
LINE
5
851
100
AcDbEntity
8
INTERIOR_PROFILES
100
AcDbLine
10
223.8692178371266
20
28.815752039526195
30
0
11
237.72562429767763
21
28.815752039526199
31
0
0
LINE
5
852
100
AcDbEntity
8
INTERIOR_PROFILES
100
AcDbLine
10
237.72562429767763
20
28.815752039526199
30
0
11
237.72562429767771
21
36.695752039526226
31
0
0
LINE
5
853
100
AcDbEntity
8
INTERIOR_PROFILES
100
AcDbLine
10
237.72562429767771
20
36.695752039526226
30
0
11
236.06193826816536
21
37.65628161651221
31
0
0
SPLINE
5
854
100
AcDbEntity
8
INTERIOR_PROFILES
100
AcDbSpline
70
0
71
3
72
11
73
7
74
0
42
0.000000001
43
0.0000000001
44
0.0000000001
40
-0.99846357112000705
40
-0.99846357112000705
40
-0.99846357112000705
40
-0.99846357112000705
40
-0.54568886608570311
40
-0.54568886608570311
40
-0.54568886608570311
40
-0.37638883313508703
40
-0.37638883313508703
40
-0.37638883313508703
40
-0.37638883313508703
10
232.84270602688107
20
37.993066584159791
30
0
10
233.78212582090924
20
37.878565983786686
30
0
10
234.59931814554071
20
37.788259249910105
30
0
10
235.3108117304204
20
37.721748963598991
30
0
10
235.57685107852211
20
37.696879655444569
30
0
10
235.82507806247887
20
37.674845724240072
30
0
10
236.06193826816536
20
37.656281616512224
30
0
0
SPLINE
5
855
100
AcDbEntity
8
INTERIOR_PROFILES
100
AcDbSpline
70
0
71
3
72
8
73
4
74
0
42
0.000000001
43
0.0000000001
44
0.0000000001
40
-1
40
-1
40
-1
40
-1
40
-5.9701983287014014e-09
40
-5.9701983287014014e-09
40
-5.9701983287014014e-09
40
-5.9701983287014014e-09
10
228.81965026259422
20
38.177397757147034
30
0
10
230.54535488878429
20
38.177397757147041
30
0
10
231.91835084800266
20
38.103995539812921
30
0
10
232.84270709491699
20
37.993075484675757
30
0
0
LWPOLYLINE
5
856
100
AcDbEntity
8
INTERIOR_PROFILES
100
AcDbPolyline
90
5
70
1
43
0.0
10
167.28921783712656
20
28.815752039526195
10
167.28921783712667
20
36.69575203952639
10
174.21742106740226
20
40.695752039526312
10
181.14562429767773
20
36.695752039526226
10
181.14562429767759
20
28.815752039526195
0
LWPOLYLINE
5
857
100
AcDbEntity
8
INTERIOR_PROFILES
100
AcDbPolyline
90
4
70
1
43
0.0
10
11.40562429767769
20
70.015752039526234
10
11.405624297677583
20
62.01575203952622
10
4.480000000000004
20
58.017240986955969
10
4.480000000000004
20
74.014263092096769
0
LINE
5
858
100
AcDbEntity
8
INTERIOR_PROFILES
100
AcDbLine
10
296.80562429767798
20
41.025879058448389
30
0
11
303.73382752795345
21
45.025879058448417
31
0
0
LINE
5
859
100
AcDbEntity
8
INTERIOR_PROFILES
100
AcDbLine
10
303.73382752795345
20
45.025879058448417
30
0
11
303.73382752795345
21
49.469224640925873
31
0
0
SPLINE
5
860
100
AcDbEntity
8
INTERIOR_PROFILES
100
AcDbSpline
70
0
71
3
72
11
73
7
74
0
42
0.000000001
43
0.0000000001
44
0.0000000001
40
-0.64208571801396364
40
-0.64208571801396364
40
-0.64208571801396364
40
-0.64208571801396364
40
-0.624196449313554
40
-0.624196449313554
40
-0.624196449313554
40
-0.39311791160266013
40
-0.39311791160266013
40
-0.39311791160266013
40
-0.39311791160266013
10
302.139856943258
20
53.946158404602613
30
0
10
302.16750541279703
20
53.834291733204537
30
0
10
302.19588703857812
20
53.722720001765225
30
0
10
302.22500603842695
20
53.611445971758364
30
0
10
302.60114080488097
20
52.174101574410408
30
0
10
303.10614275503286
20
50.787910666899201
30
0
10
303.73382752795345
20
49.469224640925873
30
0
0
LINE
5
861
100
AcDbEntity
8
INTERIOR_PROFILES
100
AcDbLine
10
302.139856943258
20
53.946158404602613
30
0
11
298.11409129823983
21
56.270435283448236
31
0
0
LINE
5
862
100
AcDbEntity
8
INTERIOR_PROFILES
100
AcDbLine
10
298.11409129823983
20
56.270435283448236
30
0
11
294.43021415123781
21
46.675214816796746
31
0
0
SPLINE
5
863
100
AcDbEntity
8
INTERIOR_PROFILES
100
AcDbSpline
70
0
71
3
72
8
73
4
74
0
42
0.000000001
43
0.0000000001
44
0.0000000001
40
-0.23970807122352217
40
-0.23970807122352217
40
-0.23970807122352217
40
-0.23970807122352217
40
-0.00084504884425824387
40
-0.00084504884425824387
40
-0.00084504884425824387
40
-0.00084504884425824387
10
292.82451934778533
20
43.324371072978138
30
0
10
293.45848124954694
20
44.360851362280314
30
0
10
293.97837274756574
20
45.481959550780253
30
0
10
294.43021415123781
20
46.675214816796746
30
0
0
LINE
5
864
100
AcDbEntity
8
INTERIOR_PROFILES
100
AcDbLine
10
292.82451934778533
20
43.324371072978138
30
0
11
296.80562429767798
21
41.025879058448389
31
0
0
LWPOLYLINE
5
865
100
AcDbEntity
8
INTERIOR_PROFILES
100
AcDbPolyline
90
6
70
1
43
0.0
10
32.765624297677896
20
90.345879058448418
10
39.693827527953438
20
86.345879058448418
10
39.693827527953474
20
78.345879058448418
10
32.765624297677931
20
74.345879058448403
10
25.83742106740246
20
78.345879058448389
10
25.837421067402424
20
86.345879058448389
0
LINE
5
866
100
AcDbEntity
8
INTERIOR_PROFILES
100
AcDbLine
10
130.46645930784808
20
155.02240604985718
30
0
11
127.06562429767793
21
156.98587905844843
31
0
0
LINE
5
867
100
AcDbEntity
8
INTERIOR_PROFILES
100
AcDbLine
10
127.06562429767793
20
156.98587905844843
30
0
11
120.13742106740241
21
152.98587905844838
31
0
0
LINE
5
868
100
AcDbEntity
8
INTERIOR_PROFILES
100
AcDbLine
10
120.13742106740241
20
152.98587905844838
30
0
11
120.1374210674024
21
152.405981230592
31
0
0
SPLINE
5
869
100
AcDbEntity
8
INTERIOR_PROFILES
100
AcDbSpline
70
0
71
3
72
11
73
7
74
0
42
0.000000001
43
0.0000000001
44
0.0000000001
40
-0.91351782263806169
40
-0.91351782263806169
40
-0.91351782263806169
40
-0.91351782263806169
40
-0.61530332939136956
40
-0.61530332939136956
40
-0.61530332939136956
40
-0.36653882335282767
40
-0.36653882335282767
40
-0.36653882335282767
40
-0.36653882335282767
10
130.46645930783458
20
155.02240604985641
30
0
10
128.43657411534127
20
154.9149899475639
30
0
10
126.48032756300321
20
154.61942903918816
30
0
10
124.61034709704893
20
154.11541590680824
30
0
10
123.05044716780564
20
153.69497833334091
30
0
10
121.55237550639704
20
153.12251333740204
30
0
10
120.1374210674024
20
152.405981230592
30
0
0
LINE
5
870
100
AcDbEntity
8
INTERIOR_PROFILES
100
AcDbLine
10
202.50562429767794
20
156.98587905844843
30
0
11
197.17145940353618
21
153.90619752091382
31
0
0
SPLINE
5
871
100
AcDbEntity
8
INTERIOR_PROFILES
100
AcDbSpline
70
0
71
3
72
11
73
7
74
0
42
0.000000001
43
0.0000000001
44
0.0000000001
40
-0.47594760164281741
40
-0.47594760164281741
40
-0.47594760164281741
40
-0.47594760164281741
40
-0.30146292713563794
40
-0.30146292713563794
40
-0.30146292713563794
40
-0.13294363862745337
40
-0.13294363862745337
40
-0.13294363862745337
40
-0.13294363862745337
10
201.85114647726732
20
151.71911025012196
30
0
10
201.16231510016507
20
152.35531243141287
30
0
10
200.36218465711815
20
152.86271400255728
30
0
10
199.54536400843347
20
153.22119733003552
30
0
10
198.7564693106961
20
153.56742461595221
30
0
10
197.96086320898235
20
153.78321003934019
30
0
10
197.17145940353618
20
153.90619752091382
30
0
0
SPLINE
5
872
100
AcDbEntity
8
INTERIOR_PROFILES
100
AcDbSpline
70
0
71
3
72
14
73
10
74
0
42
0.000000001
43
0.0000000001
44
0.0000000001
40
-0.9499316560120068
40
-0.9499316560120068
40
-0.9499316560120068
40
-0.9499316560120068
40
-0.86030980536488433
40
-0.86030980536488433
40
-0.86030980536488433
40
-0.58464533019143328
40
-0.58464533019143328
40
-0.58464533019143328
40
-0.54574085326718802
40
-0.54574085326718802
40
-0.54574085326718802
40
-0.54574085326718802
10
207.63932623099421
20
154.02193486530899
30
0
10
207.20449544882047
20
153.99682501888014
30
0
10
206.76644388348399
20
153.94769015308617
30
0
10
206.3250729431561
20
153.86897475214323
30
0
10
204.96747669019123
20
153.62685701486907
30
0
10
203.54957889518531
20
153.07642943594806
30
0
10
202.34564253779638
20
152.1369764124664
30
0
10
202.17573122004382
20
152.00439157921772
30
0
10
202.00994444688155
20
151.86429034861499
30
0
10
201.85114647744911
20
151.71911025028811
30
0
0
LINE
5
873
100
AcDbEntity
8
INTERIOR_PROFILES
100
AcDbLine
10
207.63932623099421
20
154.02193486530899
30
0
11
202.50562429767794
21
156.98587905844843
31
0
0
LINE
5
874
100
AcDbEntity
8
INTERIOR_PROFILES
100
AcDbLine
10
303.73382752795345
20
144.9858790584484
30
0
11
303.73382752795345
21
152.98587905844843
31
0
0
LINE
5
875
100
AcDbEntity
8
INTERIOR_PROFILES
100
AcDbLine
10
303.73382752795345
20
152.98587905844843
30
0
11
296.80562429767792
21
156.98587905844843
31
0
0
LINE
5
876
100
AcDbEntity
8
INTERIOR_PROFILES
100
AcDbLine
10
296.80562429767792
20
156.98587905844843
30
0
11
289.87742106740245
21
152.9858790584484
31
0
0
LINE
5
877
100
AcDbEntity
8
INTERIOR_PROFILES
100
AcDbLine
10
289.87742106740245
20
152.9858790584484
30
0
11
289.87742106740245
21
150.88662417661629
31
0
0
SPLINE
5
878
100
AcDbEntity
8
INTERIOR_PROFILES
100
AcDbSpline
70
0
71
3
72
8
73
4
74
0
42
0.000000001
43
0.0000000001
44
0.0000000001
40
-0.99900233659864135
40
-0.99900233659864135
40
-0.99900233659864135
40
-0.99900233659864135
40
-0.75727259653154233
40
-0.75727259653154233
40
-0.75727259653154233
40
-0.75727259653154233
10
292.68637627562049
20
147.90405144736644
30
0
10
291.84952024554104
20
149.00251188849299
30
0
10
290.90984886891107
20
150.00521220816492
30
0
10
289.87742106740245
20
150.88662417661627
30
0
0
SPLINE
5
879
100
AcDbEntity
8
INTERIOR_PROFILES
100
AcDbSpline
70
0
71
3
72
8
73
4
74
0
42
0.000000001
43
0.0000000001
44
0.0000000001
40
-0.43083818854386113
40
-0.43083818854386113
40
-0.43083818854386113
40
-0.43083818854386113
40
-0.0010039365834923107
40
-0.0010039365834923107
40
-0.0010039365834923107
40
-0.0010039365834923107
10
296.12621333656426
20
141.37813715973772
30
0
10
295.31814056535507
20
143.76662214258945
30
0
10
294.17897003322958
20
145.96590685145424
30
0
10
292.6863762756177
20
147.90405144736434
30
0
0
LINE
5
880
100
AcDbEntity
8
INTERIOR_PROFILES
100
AcDbLine
10
296.12621333656426
20
141.37813715973772
30
0
11
296.80562429767798
21
140.9858790584484
31
0
0
LINE
5
881
100
AcDbEntity
8
INTERIOR_PROFILES
100
AcDbLine
10
296.80562429767798
20
140.9858790584484
30
0
11
303.73382752795345
21
144.9858790584484
31
0
0
LWPOLYLINE
5
882
100
AcDbEntity
8
INTERIOR_PROFILES
100
AcDbPolyline
90
6
70
1
43
0.0
10
205.0092178371267
20
103.33575203952641
10
211.93742106740223
20
107.33575203952633
10
218.8656242976777
20
103.33575203952623
10
218.86562429767761
20
95.335752039526227
10
211.93742106740203
20
91.335752039526312
10
205.00921783712656
20
95.335752039526383
0
LINE
5
883
100
AcDbEntity
8
INTERIOR_PROFILES
100
AcDbLine
10
240.22562429767791
20
90.345879058448418
30
0
11
233.29742106740241
21
86.345879058448389
31
0
0
LINE
5
884
100
AcDbEntity
8
INTERIOR_PROFILES
100
AcDbLine
10
233.29742106740241
20
86.345879058448389
30
0
11
233.29742106740241
21
83.382723840050375
31
0
0
SPLINE
5
885
100
AcDbEntity
8
INTERIOR_PROFILES
100
AcDbSpline
70
0
71
3
72
8
73
4
74
0
42
0.000000001
43
0.0000000001
44
0.0000000001
40
-0.43360129678535958
40
-0.43360129678535958
40
-0.43360129678535958
40
-0.43360129678535958
40
-0.42351508348838907
40
-0.42351508348838907
40
-0.42351508348838907
40
-0.42351508348838907
10
233.40261058238281
20
83.303864832424978
30
0
10
233.36774806124296
20
83.33055356953767
30
0
10
233.33267919529357
20
83.356839976486867
30
0
10
233.29742106740244
20
83.382723840050389
30
0
0
SPLINE
5
886
100
AcDbEntity
8
INTERIOR_PROFILES
100
AcDbSpline
70
0
71
3
72
11
73
7
74
0
42
0.000000001
43
0.0000000001
44
0.0000000001
40
-1
40
-1
40
-1
40
-1
40
-0.55172068699813825
40
-0.55172068699813825
40
-0.55172068699813825
40
-0.35003522076444549
40
-0.35003522076444549
40
-0.35003522076444549
40
-0.35003522076444549
10
242.52932891249657
20
85.787365942571853
30
0
10
240.2782788836642
20
85.787365942571853
30
0
10
238.08028961226961
20
85.431631364474526
30
0
10
236.03784074372123
20
84.636226019724347
30
0
10
235.1189220241551
20
84.278364987221082
30
0
10
234.23371929292043
20
83.832040377139833
30
0
10
233.40261058238281
20
83.303864832424949
30
0
0
SPLINE
5
887
100
AcDbEntity
8
INTERIOR_PROFILES
100
AcDbSpline
70
0
71
3
72
8
73
4
74
0
42
0.000000001
43
0.0000000001
44
0.0000000001
40
-0.41520644530713124
40
-0.41520644530713124
40
-0.41520644530713124
40
-0.41520644530713124
40
-0
40
-0
40
-0
40
-0
10
247.15382752794454
20
85.095967549337885
30
0
10
245.66512258569546
20
85.562166357080486
30
0
10
244.09842590793573
20
85.787365942571853
30
0
10
242.52932891249657
20
85.787365942571853
30
0
0
LINE
5
888
100
AcDbEntity
8
INTERIOR_PROFILES
100
AcDbLine
10
247.15382752794454
20
85.095967549337885
30
0
11
247.15382752795341
21
86.345879058448418
31
0
0
LINE
5
889
100
AcDbEntity
8
INTERIOR_PROFILES
100
AcDbLine
10
247.15382752795341
20
86.345879058448418
30
0
11
240.22562429767791
21
90.345879058448418
31
0
0
SPLINE
5
890
100
AcDbEntity
8
INTERIOR_PROFILES
100
AcDbSpline
70
0
71
3
72
11
73
7
74
0
42
0.000000001
43
0.0000000001
44
0.0000000001
40
-1.0025331966884423
40
-1.0025331966884423
40
-1.0025331966884423
40
-1.0025331966884423
40
-1
40
-1
40
-1
40
-0.88549165724154433
40
-0.88549165724154433
40
-0.88549165724154433
40
-0.88549165724154433
10
140.1127952686289
20
80.967486724420397
30
0
10
140.10672847077333
20
80.96166755063841
30
0
10
140.10066167291814
20
80.955848376856778
30
0
10
140.09459487506294
20
80.950029203075161
30
0
10
139.71056051262505
20
80.58166969176736
30
0
10
139.34425091660887
20
80.195881149900643
30
0
10
138.9974210674024
20
79.794053317550876
30
0
0
SPLINE
5
891
100
AcDbEntity
8
INTERIOR_PROFILES
100
AcDbSpline
70
0
71
3
72
14
73
10
74
0
42
0.000000001
43
0.0000000001
44
0.0000000001
40
-0.98411876301304924
40
-0.98411876301304924
40
-0.98411876301304924
40
-0.98411876301304924
40
-0.64022683347640241
40
-0.64022683347640241
40
-0.64022683347640241
40
-0
40
-0
40
-0
40
0.0025064319279207827
40
0.0025064319279207827
40
0.0025064319279207827
40
0.0025064319279207827
10
152.85382752795346
20
85.786275359890567
30
0
10
151.176232415323
20
85.770512764038301
30
0
10
149.53993249012763
20
85.583472842191185
30
0
10
147.96423819595941
20
85.198482772583034
30
0
10
145.03075333680215
20
84.481743145929968
30
0
10
142.31654546151614
20
83.039011905853712
30
0
10
140.13117085168903
20
80.984759772616229
30
0
10
140.1250456573157
20
80.979002089905293
30
0
10
140.11892046294236
20
80.973244407194343
30
0
10
140.11279526856839
20
80.967486724482825
30
0
0
LINE
5
892
100
AcDbEntity
8
INTERIOR_PROFILES
100
AcDbLine
10
152.85382752795346
20
85.786275359890567
30
0
11
152.85382752795346
21
86.345879058448418
31
0
0
LINE
5
893
100
AcDbEntity
8
INTERIOR_PROFILES
100
AcDbLine
10
152.85382752795346
20
86.345879058448418
30
0
11
145.92562429767793
21
90.345879058448418
31
0
0
LINE
5
894
100
AcDbEntity
8
INTERIOR_PROFILES
100
AcDbLine
10
145.92562429767793
20
90.345879058448418
30
0
11
138.9974210674024
21
86.345879058448389
31
0
0
LINE
5
895
100
AcDbEntity
8
INTERIOR_PROFILES
100
AcDbLine
10
138.9974210674024
20
86.345879058448389
30
0
11
138.9974210674024
21
79.794053317550862
31
0
0
LWPOLYLINE
5
896
100
AcDbEntity
8
INTERIOR_PROFILES
100
AcDbPolyline
90
5
70
1
43
0.0
10
318.16921783712655
20
161.97575203952641
10
318.16921783712672
20
169.85575203952621
10
332.02562429767772
20
169.85575203952618
10
332.02562429767767
20
161.97575203952621
10
325.09742106740202
20
157.97575203952633
0
SPLINE
5
897
100
AcDbEntity
8
INTERIOR_PROFILES
100
AcDbSpline
70
0
71
3
72
17
73
13
74
0
42
0.000000001
43
0.0000000001
44
0.0000000001
40
-1
40
-1
40
-1
40
-1
40
-0.8676687195376922
40
-0.8676687195376922
40
-0.8676687195376922
40
-0.56333143852496548
40
-0.56333143852496548
40
-0.56333143852496548
40
-0.29099076579116234
40
-0.29099076579116234
40
-0.29099076579116234
40
-0
40
-0
40
-0
40
-0
10
175.46775189042094
20
158.71991208133525
30
0
10
175.46775189042094
20
159.15141738937251
30
0
10
175.44423974145943
20
159.59141563438033
30
0
10
175.38593468597168
20
160.04538885524107
30
0
10
175.2518439253106
20
161.08944265118919
30
0
10
174.93109482241999
20
162.24604750159656
30
0
10
174.20733334032661
20
163.35481408003255
30
0
10
173.55966477906384
20
164.34701008990413
30
0
10
172.55980715191521
20
165.23776959571558
30
0
10
171.47895092228936
20
165.76454785413543
30
0
10
170.3240768492698
20
166.32740028187231
30
0
10
169.15274034218118
20
166.50583794650859
30
0
10
168.1217035353184
20
166.50583794650859
30
0
0
LINE
5
898
100
AcDbEntity
8
INTERIOR_PROFILES
100
AcDbLine
10
175.46775189042094
20
158.71991208133525
30
0
11
175.46775189042094
21
158.69763087677231
31
0
0
LINE
5
899
100
AcDbEntity
8
INTERIOR_PROFILES
100
AcDbLine
10
175.46775189042094
20
158.69763087677231
30
0
11
181.14562429767759
21
161.97575203952624
31
0
0
LINE
5
900
100
AcDbEntity
8
INTERIOR_PROFILES
100
AcDbLine
10
181.14562429767759
20
161.97575203952624
30
0
11
181.14562429767773
21
169.85575203952618
31
0
0
LINE
5
901
100
AcDbEntity
8
INTERIOR_PROFILES
100
AcDbLine
10
181.14562429767773
20
169.85575203952618
30
0
11
167.28921783712664
21
169.85575203952618
31
0
0
LINE
5
902
100
AcDbEntity
8
INTERIOR_PROFILES
100
AcDbLine
10
167.28921783712664
20
169.85575203952618
30
0
11
167.28921783712664
21
166.47665539049314
31
0
0
SPLINE
5
903
100
AcDbEntity
8
INTERIOR_PROFILES
100
AcDbSpline
70
0
71
3
72
11
73
7
74
0
42
0.000000001
43
0.0000000001
44
0.0000000001
40
-1
40
-1
40
-1
40
-1
40
-0.73204510707999693
40
-0.73204510707999693
40
-0.73204510707999693
40
-0.70581273277901879
40
-0.70581273277901879
40
-0.70581273277901879
40
-0.70581273277901879
10
168.1217035353184
20
166.50583794650859
30
0
10
167.85676096795012
20
166.50583794650859
30
0
10
167.61270019620369
20
166.4960818735747
30
0
10
167.36281173987763
20
166.48118380924512
30
0
10
167.33834804209471
20
166.47972531152715
30
0
10
167.31381835032192
20
166.47821577641514
30
0
10
167.28921783712673
20
166.47665539049319
30
0
0
SPLINE
5
904
100
AcDbEntity
8
INTERIOR_PROFILES
100
AcDbSpline
70
0
71
3
72
8
73
4
74
0
42
0.000000001
43
0.0000000001
44
0.0000000001
40
-0.19683687704884437
40
-0.19683687704884437
40
-0.19683687704884437
40
-0.19683687704884437
40
-3.0610783205777654e-07
40
-3.0610783205777654e-07
40
-3.0610783205777654e-07
40
-3.0610783205777654e-07
10
143.72690832574133
20
108.93530831671757
30
0
10
144.60816162561696
20
109.43052115716107
30
0
10
145.45667850492651
20
109.98560840093647
30
0
10
146.26708360056713
20
110.59955218097336
30
0
0
LINE
5
905
100
AcDbEntity
8
INTERIOR_PROFILES
100
AcDbLine
10
143.72690832574133
20
108.93530831671757
30
0
11
145.92562429767796
21
107.66587905844841
31
0
0
LINE
5
906
100
AcDbEntity
8
INTERIOR_PROFILES
100
AcDbLine
10
145.92562429767796
20
107.66587905844841
30
0
11
149.58522541345707
21
109.77875074777015
31
0
0
LINE
5
907
100
AcDbEntity
8
INTERIOR_PROFILES
100
AcDbLine
10
149.58522541345707
20
109.77875074777015
30
0
11
149.55770158796145
21
109.80789351032638
31
0
0
SPLINE
5
908
100
AcDbEntity
8
INTERIOR_PROFILES
100
AcDbSpline
70
0
71
3
72
11
73
7
74
0
42
0.000000001
43
0.0000000001
44
0.0000000001
40
-0.35337534850181934
40
-0.35337534850181934
40
-0.35337534850181934
40
-0.35337534850181934
40
-0
40
-0
40
-0
40
0.01801652739722891
40
0.01801652739722891
40
0.01801652739722891
40
0.01801652739722891
10
148.01999257207842
20
112.07588240159062
30
0
10
148.41211724903712
20
111.27206271458321
30
0
10
148.92131913011494
20
110.51914721382559
30
0
10
149.51279257009409
20
109.85808613409347
30
0
10
149.52776224271651
20
109.84135525950447
30
0
10
149.54273191533895
20
109.82462438491545
30
0
10
149.55770158796145
20
109.80789351032638
30
0
0
SPLINE
5
909
100
AcDbEntity
8
INTERIOR_PROFILES
100
AcDbSpline
70
0
71
3
72
8
73
4
74
0
42
0.000000001
43
0.0000000001
44
0.0000000001
40
-1
40
-1
40
-1
40
-1
40
-0.84944675080973508
40
-0.84944675080973508
40
-0.84944675080973508
40
-0.84944675080973508
10
146.26708360056602
20
110.59955218097474
30
0
10
146.88366677145913
20
111.06666033075641
30
0
10
147.46795930501372
20
111.55687028088232
30
0
10
148.01999256841921
20
112.07588240909163
30
0
0
LWPOLYLINE
5
910
100
AcDbEntity
8
INTERIOR_PROFILES
100
AcDbPolyline
90
6
70
1
43
0.0
10
332.02562429767767
20
128.65575203952625
10
325.09742106740202
20
124.65575203952631
10
318.16921783712655
20
128.65575203952639
10
318.16921783712672
20
136.65575203952642
10
325.09742106740225
20
140.65575203952631
10
332.02562429767772
20
136.65575203952625
0
LWPOLYLINE
5
911
100
AcDbEntity
8
INTERIOR_PROFILES
100
AcDbPolyline
90
6
70
1
43
0.0
10
369.74562429767758
20
128.65575203952625
10
362.81742106740211
20
124.65575203952631
10
355.88921783712658
20
128.65575203952639
10
355.88921783712669
20
136.65575203952639
10
362.81742106740228
20
140.65575203952631
10
369.74562429767775
20
136.65575203952625
0
LWPOLYLINE
5
912
100
AcDbEntity
8
INTERIOR_PROFILES
100
AcDbPolyline
90
6
70
1
43
0.0
10
398.03382752795346
20
111.66587905844843
10
391.10562429767799
20
107.66587905844841
10
384.17742106740241
20
111.66587905844838
10
384.17742106740235
20
119.6658790584484
10
391.10562429767788
20
123.66587905844841
10
398.03382752795346
20
119.66587905844844
0
LWPOLYLINE
5
913
100
AcDbEntity
8
INTERIOR_PROFILES
100
AcDbPolyline
90
6
70
1
43
0.0
10
337.02921783712662
20
128.65575203952639
10
337.02921783712668
20
136.65575203952639
10
343.95742106740221
20
140.65575203952631
10
350.88562429767768
20
136.65575203952625
10
350.88562429767762
20
128.65575203952625
10
343.95742106740204
20
124.65575203952631
0
LWPOLYLINE
5
914
100
AcDbEntity
8
INTERIOR_PROFILES
100
AcDbPolyline
90
6
70
1
43
0.0
10
313.16562429767771
20
136.65575203952622
10
313.16562429767765
20
128.65575203952622
10
306.23742106740201
20
124.65575203952632
10
299.3092178371266
20
128.65575203952636
10
299.30921783712671
20
136.65575203952642
10
306.23742106740224
20
140.65575203952633
0
LWPOLYLINE
5
915
100
AcDbEntity
8
INTERIOR_PROFILES
100
AcDbPolyline
90
6
70
1
43
0.0
10
49.125624297677568
20
62.01575203952622
10
42.197421067402026
20
58.015752039526305
10
35.269217837126554
20
62.015752039526376
10
35.269217837126661
20
70.015752039526404
10
42.197421067402203
20
74.015752039526305
10
49.125624297677675
20
70.015752039526234
0
SPLINE
5
916
100
AcDbEntity
8
INTERIOR_PROFILES
100
AcDbSpline
70
0
71
3
72
8
73
4
74
0
42
0.000000001
43
0.0000000001
44
0.0000000001
40
-1
40
-1
40
-1
40
-1
40
-0.75763143324317261
40
-0.75763143324317261
40
-0.75763143324317261
40
-0.75763143324317261
10
278.08651104569441
20
155.06888440189189
30
0
10
276.63735444930131
20
155.06888440189189
30
0
10
275.20112719617214
20
154.91258417655416
30
0
10
273.80747284148742
20
154.5967162012625
30
0
0
SPLINE
5
917
100
AcDbEntity
8
INTERIOR_PROFILES
100
AcDbSpline
70
0
71
3
72
8
73
4
74
0
42
0.000000001
43
0.0000000001
44
0.0000000001
40
-0.22370861066067424
40
-0.22370861066067424
40
-0.22370861066067424
40
-0.22370861066067424
40
-0
40
-0
40
-0
40
-0
10
281.88352044623321
20
154.71233365703927
30
0
10
280.64490556793368
20
154.95167510484836
30
0
10
279.37240242026201
20
155.06888440189189
30
0
10
278.08651104569441
20
155.06888440189189
30
0
0
LINE
5
918
100
AcDbEntity
8
INTERIOR_PROFILES
100
AcDbLine
10
281.88352044623321
20
154.71233365703927
30
0
11
277.94562429767791
21
156.98587905844843
31
0
0
LINE
5
919
100
AcDbEntity
8
INTERIOR_PROFILES
100
AcDbLine
10
277.94562429767791
20
156.98587905844843
30
0
11
273.80747284148742
21
154.5967162012625
31
0
0
LINE
5
920
100
AcDbEntity
8
INTERIOR_PROFILES
100
AcDbLine
10
214.43742106740243
20
86.345879058448389
30
0
11
214.43742106740243
21
83.390033015114199
31
0
0
SPLINE
5
921
100
AcDbEntity
8
INTERIOR_PROFILES
100
AcDbSpline
70
0
71
3
72
11
73
7
74
0
42
0.000000001
43
0.0000000001
44
0.0000000001
40
-1
40
-1
40
-1
40
-1
40
-0.57949303476737413
40
-0.57949303476737413
40
-0.57949303476737413
40
-0.35422622063473469
40
-0.35422622063473469
40
-0.35422622063473469
40
-0.35422622063473469
10
219.21555938240948
20
84.761124880310931
30
0
10
218.16910172763059
20
84.761112303566918
30
0
10
217.0708582977739
20
84.586472274091932
30
0
10
216.02863585060288
20
84.19396178582177
30
0
10
215.47031423002784
20
83.98369276647901
30
0
10
214.93634960349164
20
83.710488910346541
30
0
10
214.4374210674024
20
83.390033015114227
30
0
0
SPLINE
5
922
100
AcDbEntity
8
INTERIOR_PROFILES
100
AcDbSpline
70
0
71
3
72
11
73
7
74
0
42
0.000000001
43
0.0000000001
44
0.0000000001
40
-1
40
-1
40
-1
40
-1
40
-0.84254550378512671
40
-0.84254550378512671
40
-0.84254550378512671
40
-0
40
-0
40
-0
40
-0
10
222.35297579997854
20
84.34865440816445
30
0
10
222.18431647452309
20
84.386142772084156
30
0
10
222.01822275032617
20
84.421427360968806
30
0
10
221.85410522063154
20
84.454475833644977
30
0
10
220.9759055498655
20
84.631319574088408
30
0
10
220.18905731258036
20
84.761078051782434
30
0
10
219.21555938240948
20
84.761124880310916
30
0
0
SPLINE
5
923
100
AcDbEntity
8
INTERIOR_PROFILES
100
AcDbSpline
70
0
71
3
72
8
73
4
74
0
42
0.000000001
43
0.0000000001
44
0.0000000001
40
-1
40
-1
40
-1
40
-1
40
-4.3413633021209552e-06
40
-4.3413633021209552e-06
40
-4.3413633021209552e-06
40
-4.3413633021209552e-06
10
223.76099929213524
20
84.174464254949783
30
0
10
223.39565460544969
20
84.174464254949783
30
0
10
222.92649266871013
20
84.221207635527861
30
0
10
222.35297579997405
20
84.348654408174667
30
0
0
SPLINE
5
924
100
AcDbEntity
8
INTERIOR_PROFILES
100
AcDbSpline
70
0
71
3
72
11
73
7
74
0
42
0.000000001
43
0.0000000001
44
0.0000000001
40
-1
40
-1
40
-1
40
-1
40
-0.83073636217019842
40
-0.83073636217019842
40
-0.83073636217019842
40
-0
40
-0
40
-0
40
-0
10
225.47026625606554
20
84.393777472382084
30
0
10
225.30446890050061
20
84.364943068135631
30
0
10
225.14843309237929
20
84.339084447636338
30
0
10
225.00277622315565
20
84.316186880295007
30
0
10
224.28790054628035
20
84.203806914700607
30
0
10
223.78671402929808
20
84.174464254949783
30
0
10
223.76099929213524
20
84.174464254949783
30
0
0
SPLINE
5
925
100
AcDbEntity
8
INTERIOR_PROFILES
100
AcDbSpline
70
0
71
3
72
11
73
7
74
0
42
0.000000001
43
0.0000000001
44
0.0000000001
40
-0.84073916166605478
40
-0.84073916166605478
40
-0.84073916166605478
40
-0.84073916166605478
40
-0.75104022771283918
40
-0.75104022771283918
40
-0.75104022771283918
40
-0
40
-0
40
-0
40
-0
10
228.29382752795345
20
84.74756380481125
30
0
10
228.19798041974559
20
84.742797270704131
30
0
10
228.10318747409326
20
84.736915449424231
30
0
10
228.00849777159624
20
84.730174062313196
30
0
10
227.21567033662907
20
84.673729100396301
30
0
10
226.41411340170845
20
84.557924337877978
30
0
10
225.47027095909772
20
84.393778290300702
30
0
0
LINE
5
926
100
AcDbEntity
8
INTERIOR_PROFILES
100
AcDbLine
10
228.29382752795345
20
84.74756380481125
30
0
11
228.29382752795343
21
86.345879058448418
31
0
0
LINE
5
927
100
AcDbEntity
8
INTERIOR_PROFILES
100
AcDbLine
10
228.29382752795343
20
86.345879058448418
30
0
11
221.36562429767793
21
90.345879058448418
31
0
0
LINE
5
928
100
AcDbEntity
8
INTERIOR_PROFILES
100
AcDbLine
10
221.36562429767793
20
90.345879058448418
30
0
11
214.43742106740243
21
86.345879058448389
31
0
0
SPLINE
5
929
100
AcDbEntity
8
INTERIOR_PROFILES
100
AcDbSpline
70
0
71
3
72
8
73
4
74
0
42
0.000000001
43
0.0000000001
44
0.0000000001
40
-0.21385782658356459
40
-0.21385782658356459
40
-0.21385782658356459
40
-0.21385782658356459
40
-0
40
-0
40
-0
40
-0
10
303.73382752793361
20
84.351114755492546
30
0
10
302.70851735359366
20
84.650683773325341
30
0
10
301.67910435532866
20
84.760973959539626
30
0
10
300.68181380629539
20
84.760973959539626
30
0
0
LINE
5
930
100
AcDbEntity
8
INTERIOR_PROFILES
100
AcDbLine
10
303.73382752793361
20
84.351114755492546
30
0
11
303.73382752795345
21
86.345879058448418
31
0
0
LINE
5
931
100
AcDbEntity
8
INTERIOR_PROFILES
100
AcDbLine
10
303.73382752795345
20
86.345879058448418
30
0
11
296.80562429767792
21
90.345879058448418
31
0
0
LINE
5
932
100
AcDbEntity
8
INTERIOR_PROFILES
100
AcDbLine
10
296.80562429767792
20
90.345879058448418
30
0
11
289.87742106740245
21
86.345879058448389
31
0
0
LINE
5
933
100
AcDbEntity
8
INTERIOR_PROFILES
100
AcDbLine
10
289.87742106740245
20
86.345879058448389
30
0
11
289.87742106740245
21
84.493461465678834
31
0
0
SPLINE
5
934
100
AcDbEntity
8
INTERIOR_PROFILES
100
AcDbSpline
70
0
71
3
72
11
73
7
74
0
42
0.000000001
43
0.0000000001
44
0.0000000001
40
-0.99852441867244357
40
-0.99852441867244357
40
-0.99852441867244357
40
-0.99852441867244357
40
-0.90982165659942493
40
-0.90982165659942493
40
-0.90982165659942493
40
-0.90179949226489553
40
-0.90179949226489553
40
-0.90179949226489553
40
-0.90179949226489553
10
290.39111113366926
20
84.436296014183924
30
0
10
290.23094576000165
20
84.45458669356087
30
0
10
290.07367442978239
20
84.47212890738993
30
0
10
289.91924343387819
20
84.488922112607298
30
0
10
289.90527689215463
20
84.490440868605532
30
0
10
289.8913361529552
20
84.491953992548105
30
0
10
289.87742106740245
20
84.493461465678848
30
0
0
SPLINE
5
935
100
AcDbEntity
8
INTERIOR_PROFILES
100
AcDbSpline
70
0
71
3
72
11
73
7
74
0
42
0.000000001
43
0.0000000001
44
0.0000000001
40
-1
40
-1
40
-1
40
-1
40
-0.88628734666888165
40
-0.88628734666888165
40
-0.88628734666888165
40
-0.0015146431713701661
40
-0.0015146431713701661
40
-0.0015146431713701661
40
-0.0015146431713701661
10
293.79031524062157
20
84.174464254949783
30
0
10
293.73239067608159
20
84.174464254949783
30
0
10
293.66403602359679
20
84.175211528045267
30
0
10
293.58654821119785
20
84.176969680477995
30
0
10
292.98363288686113
20
84.190649471033439
30
0
10
291.86623852003299
20
84.272517192644131
30
0
10
290.39111113366943
20
84.436296014185515
30
0
0
SPLINE
5
936
100
AcDbEntity
8
INTERIOR_PROFILES
100
AcDbSpline
70
0
71
3
72
8
73
4
74
0
42
0.000000001
43
0.0000000001
44
0.0000000001
40
-1
40
-1
40
-1
40
-1
40
-0
40
-0
40
-0
40
-0
10
297.08983264980338
20
84.413736674895574
30
0
10
296.01803559128888
20
84.254952307983743
30
0
10
294.92074264656929
20
84.174464254949783
30
0
10
293.79031524062157
20
84.174464254949783
30
0
0
SPLINE
5
937
100
AcDbEntity
8
INTERIOR_PROFILES
100
AcDbSpline
70
0
71
3
72
11
73
7
74
0
42
0.000000001
43
0.0000000001
44
0.0000000001
40
-1
40
-1
40
-1
40
-1
40
-0.72443239735433029
40
-0.72443239735433029
40
-0.72443239735433029
40
-0
40
-0
40
-0
40
-0
10
300.68181380629539
20
84.760973959539626
30
0
10
300.36709762049225
20
84.760973959539626
30
0
10
300.07402293091201
20
84.747668248626269
30
0
10
299.77262130366847
20
84.72707597557789
30
0
10
298.98027452090355
20
84.672941492466762
30
0
10
298.1227810351071
20
84.566765696677336
30
0
10
297.08983264980338
20
84.413736674895574
30
0
0
LINE
5
938
100
AcDbEntity
8
INTERIOR_PROFILES
100
AcDbLine
10
167.28921783712667
20
103.33575203952641
30
0
11
167.28921783712656
21
95.335752039526383
31
0
0
LINE
5
939
100
AcDbEntity
8
INTERIOR_PROFILES
100
AcDbLine
10
167.28921783712656
20
95.335752039526383
30
0
11
174.21742106740203
21
91.335752039526298
31
0
0
LINE
5
940
100
AcDbEntity
8
INTERIOR_PROFILES
100
AcDbLine
10
174.21742106740203
20
91.335752039526298
30
0
11
181.14562429767759
21
95.335752039526227
31
0
0
LINE
5
941
100
AcDbEntity
8
INTERIOR_PROFILES
100
AcDbLine
10
181.14562429767759
20
95.335752039526227
30
0
11
181.14562429767773
21
103.33575203952623
31
0
0
LINE
5
942
100
AcDbEntity
8
INTERIOR_PROFILES
100
AcDbLine
10
181.14562429767773
20
103.33575203952623
30
0
11
174.7782604696078
21
107.01195125969079
31
0
0
SPLINE
5
943
100
AcDbEntity
8
INTERIOR_PROFILES
100
AcDbSpline
70
0
71
3
72
8
73
4
74
0
42
0.000000001
43
0.0000000001
44
0.0000000001
40
-0.97319173836106299
40
-0.97319173836106299
40
-0.97319173836106299
40
-0.97319173836106299
40
-0.88236768690591116
40
-0.88236768690591116
40
-0.88236768690591116
40
-0.88236768690591116
10
173.42638094477508
20
106.87904481178775
30
0
10
173.87160432469574
20
106.89424125085031
30
0
10
174.32276151810228
20
106.93621201614322
30
0
10
174.77826046960774
20
107.01195125969079
30
0
0
LINE
5
944
100
AcDbEntity
8
INTERIOR_PROFILES
100
AcDbLine
10
173.42638094477508
20
106.87904481178775
30
0
11
167.28921783712667
21
103.33575203952641
31
0
0
LINE
5
945
100
AcDbEntity
8
INTERIOR_PROFILES
100
AcDbLine
10
245.16001183029294
20
104.73917160582543
30
0
11
242.72921783712667
21
103.33575203952641
31
0
0
LINE
5
946
100
AcDbEntity
8
INTERIOR_PROFILES
100
AcDbLine
10
242.72921783712667
20
103.33575203952641
30
0
11
242.72921783712658
21
95.335752039526383
31
0
0
LINE
5
947
100
AcDbEntity
8
INTERIOR_PROFILES
100
AcDbLine
10
242.72921783712658
20
95.335752039526383
30
0
11
249.65742106740205
21
91.335752039526312
31
0
0
LINE
5
948
100
AcDbEntity
8
INTERIOR_PROFILES
100
AcDbLine
10
249.65742106740205
20
91.335752039526312
30
0
11
255.12843229939216
21
94.494441847055384
31
0
0
SPLINE
5
949
100
AcDbEntity
8
INTERIOR_PROFILES
100
AcDbSpline
70
0
71
3
72
8
73
4
74
0
42
0.000000001
43
0.0000000001
44
0.0000000001
40
-1
40
-1
40
-1
40
-1
40
-0.65601406785998473
40
-0.65601406785998473
40
-0.65601406785998473
40
-0.65601406785998473
10
254.55278530716899
20
94.482374697302049
30
0
10
254.74921882878164
20
94.482374697302049
30
0
10
254.93826472476746
20
94.486632646518842
30
0
10
255.12843229939216
20
94.494441847055384
30
0
0
SPLINE
5
950
100
AcDbEntity
8
INTERIOR_PROFILES
100
AcDbSpline
70
0
71
3
72
11
73
7
74
0
42
0.000000001
43
0.0000000001
44
0.0000000001
40
-0.99116759043824609
40
-0.99116759043824609
40
-0.99116759043824609
40
-0.99116759043824609
40
-0.60253601209671115
40
-0.60253601209671115
40
-0.60253601209671115
40
-0
40
-0
40
-0
40
-0
10
247.71866386961273
20
97.491887517918599
30
0
10
248.37582805682825
20
96.767274693706497
30
0
10
249.16924634277979
20
96.116808213214355
30
0
10
250.0643844582163
20
95.618791673296712
30
0
10
251.45221030770733
20
94.846664762764306
30
0
10
253.05323936567657
20
94.482374697302049
30
0
10
254.55278530716899
20
94.482374697302049
30
0
0
SPLINE
5
951
100
AcDbEntity
8
INTERIOR_PROFILES
100
AcDbSpline
70
0
71
3
72
11
73
7
74
0
42
0.000000001
43
0.0000000001
44
0.0000000001
40
-1
40
-1
40
-1
40
-1
40
-0.63659162645491651
40
-0.63659162645491651
40
-0.63659162645491651
40
-0.0088960184026593281
40
-0.0088960184026593281
40
-0.0088960184026593281
40
-0.0088960184026593281
10
245.15396252274516
20
104.32108929691142
30
0
10
245.15396252274516
20
103.45093895512463
30
0
10
245.24682584503944
20
102.5640412168736
30
0
10
245.4645469756174
20
101.68291249073071
30
0
10
245.8406048966576
20
100.16098654793194
30
0
10
246.62719478629106
20
98.664268545629852
30
0
10
247.71866386961082
20
97.491887517916894
30
0
0
SPLINE
5
952
100
AcDbEntity
8
INTERIOR_PROFILES
100
AcDbSpline
70
0
71
3
72
8
73
4
74
0
42
0.000000001
43
0.0000000001
44
0.0000000001
40
-0.033167517536461452
40
-0.033167517536461452
40
-0.033167517536461452
40
-0.033167517536461452
40
-0
40
-0
40
-0
40
-0
10
245.16001183029303
20
104.73917160582542
30
0
10
245.15590742110075
20
104.59958878662304
30
0
10
245.15396252274519
20
104.46023965511293
30
0
10
245.15396252274516
20
104.32108929691142
30
0
0
LWPOLYLINE
5
953
100
AcDbEntity
8
INTERIOR_PROFILES
100
AcDbPolyline
90
6
70
1
43
0.0
10
398.03382752795346
20
45.02587905844841
10
391.10562429767799
20
41.025879058448389
10
384.17742106740241
20
45.025879058448382
10
384.17742106740235
20
53.025879058448389
10
391.10562429767788
20
57.025879058448403
10
398.03382752795346
20
53.02587905844841
0
LINE
5
954
100
AcDbEntity
8
INTERIOR_PROFILES
100
AcDbLine
10
192.90183911848641
20
72.802988783841428
30
0
11
192.90183911848641
21
80.729593384319656
31
0
0
SPLINE
5
955
100
AcDbEntity
8
INTERIOR_PROFILES
100
AcDbSpline
70
0
71
2
72
6
73
3
74
0
42
0.000000001
43
0.0000000001
44
0.0000000001
40
0
40
0
40
0
40
0.89749681223188316
40
0.89749681223188316
40
0.89749681223188316
10
181.01906165480614
20
75.288832693670486
30
0
10
185.69078242253994
20
80.223748756510474
30
0
10
192.90183911848635
20
80.729593384319656
30
0
0
SPLINE
5
956
100
AcDbEntity
8
INTERIOR_PROFILES
100
AcDbSpline
70
0
71
2
72
6
73
3
74
0
42
0.000000001
43
0.0000000001
44
0.0000000001
40
0
40
0
40
0
40
1
40
1
40
1
10
175.88709697127342
20
60.992644339178298
30
0
10
175.88709697127342
20
69.863617926214431
30
0
10
181.01906165480614
20
75.288832693670486
30
0
0
SPLINE
5
957
100
AcDbEntity
8
INTERIOR_PROFILES
100
AcDbSpline
70
0
71
2
72
6
73
3
74
0
42
0.000000001
43
0.0000000001
44
0.0000000001
40
0
40
0
40
0
40
1
40
1
40
1
10
181.09237536787987
20
46.916401892278884
30
0
10
175.88709697127342
20
52.19499400195906
30
0
10
175.88709697127342
20
60.992644339178298
30
0
0
SPLINE
5
958
100
AcDbEntity
8
INTERIOR_PROFILES
100
AcDbSpline
70
0
71
2
72
6
73
3
74
0
42
0.000000001
43
0.0000000001
44
0.0000000001
40
0
40
0
40
0
40
1
40
1
40
1
10
195.0219951570034
20
41.637805014227126
30
0
10
186.29765376448631
20
41.637805014227126
30
0
10
181.09237536787987
20
46.916401892278884
30
0
0
SPLINE
5
959
100
AcDbEntity
8
INTERIOR_PROFILES
100
AcDbSpline
70
0
71
2
72
6
73
3
74
0
42
0.000000001
43
0.0000000001
44
0.0000000001
40
0
40
0
40
0
40
1
40
1
40
1
10
206.31231650710106
20
44.570363073919509
30
0
10
201.69354781508446
20
41.637805014227126
30
0
10
195.0219951570034
20
41.637805014227126
30
0
0
SPLINE
5
960
100
AcDbEntity
8
INTERIOR_PROFILES
100
AcDbSpline
70
0
71
2
72
6
73
3
74
0
42
0.000000001
43
0.0000000001
44
0.0000000001
40
0
40
0
40
0
40
1
40
1
40
1
10
211.00439891219139
20
51.828425436590408
30
0
10
211.00439891219139
20
47.576220541570876
30
0
10
206.31231650710106
20
44.570363073919509
30
0
0
SPLINE
5
961
100
AcDbEntity
8
INTERIOR_PROFILES
100
AcDbSpline
70
0
71
2
72
6
73
3
74
0
42
0.000000001
43
0.0000000001
44
0.0000000001
40
0
40
0
40
0
40
1
40
1
40
1
10
209.61143836379051
20
54.9809198671324
30
0
10
211.00439891219139
20
53.7345819765074
30
0
10
211.00439891219139
20
51.828425436590408
30
0
0
SPLINE
5
962
100
AcDbEntity
8
INTERIOR_PROFILES
100
AcDbSpline
70
0
71
2
72
6
73
3
74
0
42
0.000000001
43
0.0000000001
44
0.0000000001
40
0
40
0
40
0
40
1
40
1
40
1
10
206.09237536787987
20
56.227252989385804
30
0
10
208.29179152846336
20
56.227252989385818
30
0
10
209.61143836379051
20
54.9809198671324
30
0
0
SPLINE
5
963
100
AcDbEntity
8
INTERIOR_PROFILES
100
AcDbSpline
70
0
71
2
72
6
73
3
74
0
42
0.000000001
43
0.0000000001
44
0.0000000001
40
0
40
0
40
0
40
1
40
1
40
1
10
201.25366553664207
20
53.881209402654861
30
0
10
203.45307692885399
20
56.227252989385804
30
0
10
206.09237536787987
20
56.227252989385804
30
0
0
SPLINE
5
964
100
AcDbEntity
8
INTERIOR_PROFILES
100
AcDbSpline
70
0
71
2
72
6
73
3
74
0
42
0.000000001
43
0.0000000001
44
0.0000000001
40
0
40
0
40
0
40
1
40
1
40
1
10
194.94868144392967
20
50.508778601263259
30
0
10
198.02786216139793
20
50.508778601263245
30
0
10
201.25366553664207
20
53.881209402654861
30
0
0
SPLINE
5
965
100
AcDbEntity
8
INTERIOR_PROFILES
100
AcDbSpline
70
0
71
2
72
6
73
3
74
0
42
0.000000001
43
0.0000000001
44
0.0000000001
40
0
40
0
40
0
40
1
40
1
40
1
10
189.96334418654442
20
52.561562567327712
30
0
10
191.94281443953514
20
50.508778601263259
30
0
10
194.94868144392967
20
50.508778601263259
30
0
0
SPLINE
5
966
100
AcDbEntity
8
INTERIOR_PROFILES
100
AcDbSpline
70
0
71
2
72
6
73
3
74
0
42
0.000000001
43
0.0000000001
44
0.0000000001
40
0
40
0
40
0
40
1
40
1
40
1
10
187.98386916518211
20
57.693527250860413
30
0
10
187.98386916518211
20
54.614346533392165
30
0
10
189.96334418654442
20
52.561562567327712
30
0
0
SPLINE
5
967
100
AcDbEntity
8
INTERIOR_PROFILES
100
AcDbSpline
70
0
71
2
72
6
73
3
74
0
42
0.000000001
43
0.0000000001
44
0.0000000001
40
0
40
0
40
0
40
1
40
1
40
1
10
188.27712401747704
20
58.939860373113845
30
0
10
187.98386916518211
20
58.719919233892639
30
0
10
187.98386916518211
20
57.693527250860413
30
0
0
SPLINE
5
968
100
AcDbEntity
8
INTERIOR_PROFILES
100
AcDbSpline
70
0
71
2
72
6
73
3
74
0
42
0.000000001
43
0.0000000001
44
0.0000000001
40
0
40
0
40
0
40
1
40
1
40
1
10
189.96334418654442
20
59.233115225408753
30
0
10
188.64369735121727
20
59.233115225408753
30
0
10
188.27712401747704
20
58.939860373113845
30
0
0
LINE
5
969
100
AcDbEntity
8
INTERIOR_PROFILES
100
AcDbLine
10
189.96334418654442
20
59.233115225408753
30
0
11
192.90183911848641
21
59.233115225408767
31
0
0
LINE
5
970
100
AcDbEntity
8
INTERIOR_PROFILES
100
AcDbLine
10
192.90183911848641
20
59.233115225408767
30
0
11
192.90183911848641
21
67.004378347967361
31
0
0
LINE
5
971
100
AcDbEntity
8
INTERIOR_PROFILES
100
AcDbLine
10
192.90183911848641
20
67.004378347967361
30
0
11
190.10997161269188
21
67.004378347967361
31
0
0
SPLINE
5
972
100
AcDbEntity
8
INTERIOR_PROFILES
100
AcDbSpline
70
0
71
2
72
6
73
3
74
0
42
0.000000001
43
0.0000000001
44
0.0000000001
40
0
40
0
40
0
40
1
40
1
40
1
10
188.57037886977196
20
67.297633200262283
30
0
10
188.79032477736473
20
67.004378347967361
30
0
10
190.10997161269188
20
67.004378347967361
30
0
0
SPLINE
5
973
100
AcDbEntity
8
INTERIOR_PROFILES
100
AcDbSpline
70
0
71
2
72
6
73
3
74
0
42
0.000000001
43
0.0000000001
44
0.0000000001
40
0
40
0
40
0
40
1
40
1
40
1
10
188.35044249892235
20
68.030770330999587
30
0
10
188.35044249892235
20
67.590888052557204
30
0
10
188.57037886977196
20
67.297633200262283
30
0
0
SPLINE
5
974
100
AcDbEntity
8
INTERIOR_PROFILES
100
AcDbSpline
70
0
71
2
72
6
73
3
74
0
42
0.000000001
43
0.0000000001
44
0.0000000001
40
0
40
0
40
0
40
1
40
1
40
1
10
189.52346190810204
20
70.670064001653884
30
0
10
188.35044249892235
20
69.203789740179275
30
0
10
188.35044249892235
20
68.030770330999587
30
0
0
SPLINE
5
975
100
AcDbEntity
8
INTERIOR_PROFILES
100
AcDbSpline
70
0
71
2
72
6
73
3
74
0
42
0.000000001
43
0.0000000001
44
0.0000000001
40
0.24802050288086036
40
0.24802050288086036
40
0.24802050288086036
40
1
40
1
40
1
10
192.90183911848635
20
72.802988783841428
30
0
10
190.90172213533003
20
72.379110269134287
30
0
10
189.52346190810204
20
70.670064001653884
30
0
0
SPLINE
5
976
100
AcDbEntity
8
INTERIOR_PROFILES
100
AcDbSpline
70
0
71
3
72
14
73
10
74
0
42
0.000000001
43
0.0000000001
44
0.0000000001
40
-0.66222885812350596
40
-0.66222885812350596
40
-0.66222885812350596
40
-0.66222885812350596
40
-0.58277099423582879
40
-0.58277099423582879
40
-0.58277099423582879
40
-0.30837595985769511
40
-0.30837595985769511
40
-0.30837595985769511
40
-0.10472708324221548
40
-0.10472708324221548
40
-0.10472708324221548
40
-0.10472708324221548
10
201.90469648796824
20
108.01282489114783
30
0
10
202.27308308061589
20
108.21282196467891
30
0
10
202.63149782692005
20
108.44253127093559
30
0
10
202.97379983175023
20
108.70421309461562
30
0
10
204.15588510043872
20
109.60788945201585
30
0
10
205.07095666919605
20
110.86725024960768
30
0
10
205.60874223125055
20
112.1551624420959
30
0
10
206.0078727250681
20
113.11101746248295
30
0
10
206.22447721492617
20
114.07590449001759
30
0
10
206.32898998949423
20
115.02991545389328
30
0
0
LINE
5
977
100
AcDbEntity
8
INTERIOR_PROFILES
100
AcDbLine
10
201.90469648796824
20
108.01282489114783
30
0
11
202.50562429767797
21
107.66587905844841
31
0
0
LINE
5
978
100
AcDbEntity
8
INTERIOR_PROFILES
100
AcDbLine
10
202.50562429767797
20
107.66587905844841
30
0
11
208.67728359548889
21
111.22908821538623
31
0
0
SPLINE
5
979
100
AcDbEntity
8
INTERIOR_PROFILES
100
AcDbSpline
70
0
71
3
72
14
73
10
74
0
42
0.000000001
43
0.0000000001
44
0.0000000001
40
-1.0164697242411334
40
-1.0164697242411334
40
-1.0164697242411334
40
-1.0164697242411334
40
-1
40
-1
40
-1
40
-0.8231937330345338
40
-0.8231937330345338
40
-0.8231937330345338
40
-0.6167239771010401
40
-0.6167239771010401
40
-0.6167239771010401
40
-0.6167239771010401
10
206.73840553015054
20
114.06113633114617
30
0
10
206.75209009106374
20
114.03457228512308
30
0
10
206.76577465197698
20
114.00800823909988
30
0
10
206.77945921289023
20
113.98144419307668
30
0
10
207.0158757367717
20
113.52251975546821
30
0
10
207.27946111271217
20
113.07721648187365
30
0
10
207.56827583631349
20
112.64912556791754
30
0
10
207.90554615209714
20
112.14921214268171
30
0
10
208.27675664512606
20
111.67569523482028
30
0
10
208.67728359548889
20
111.22908821538623
30
0
0
SPLINE
5
980
100
AcDbEntity
8
INTERIOR_PROFILES
100
AcDbSpline
70
0
71
3
72
11
73
7
74
0
42
0.000000001
43
0.0000000001
44
0.0000000001
40
-0.092491333682109947
40
-0.092491333682109947
40
-0.092491333682109947
40
-0.092491333682109947
40
-0
40
-0
40
-0
40
0.016270239157771798
40
0.016270239157771798
40
0.016270239157771798
40
0.016270239157771798
10
206.32898998949423
20
115.02991545389328
30
0
10
206.43914091347654
20
114.73269650115269
30
0
10
206.56096629512007
20
114.43819470558466
30
0
10
206.70023491750189
20
114.14224888302329
30
0
10
206.71295845505128
20
114.11521136573087
30
0
10
206.72568199260064
20
114.08817384843844
30
0
10
206.73840553015009
20
114.06113633114589
30
0
0
SPLINE
5
981
100
AcDbEntity
8
INTERIOR_PROFILES
100
AcDbSpline
70
0
71
3
72
11
73
7
74
0
42
0.000000001
43
0.0000000001
44
0.0000000001
40
-1
40
-1
40
-1
40
-1
40
-0.93678739981619019
40
-0.93678739981619019
40
-0.93678739981619019
40
-0.445271987001298
40
-0.445271987001298
40
-0.445271987001298
40
-0.445271987001298
10
259.53811779618269
20
153.52930119571514
30
0
10
259.4797254483928
20
153.52930119571514
30
0
10
259.4232097911248
20
153.52946914699038
30
0
10
259.36862849791692
20
153.52979693289117
30
0
10
258.94422660992262
20
153.53234566244612
30
0
10
258.62287469585237
20
153.54738442220847
30
0
10
258.49128391651328
20
153.5580571902712
30
0
0
SPLINE
5
982
100
AcDbEntity
8
INTERIOR_PROFILES
100
AcDbSpline
70
0
71
3
72
11
73
7
74
0
42
0.000000001
43
0.0000000001
44
0.0000000001
40
-1.0040448410925336
40
-1.0040448410925336
40
-1.0040448410925336
40
-1.0040448410925336
40
-1
40
-1
40
-1
40
-0
40
-0
40
-0
40
-0
10
262.72194449177113
20
153.7621318667648
30
0
10
262.71700210692364
20
153.76134108724648
30
0
10
262.7120597220773
20
153.76055030772841
30
0
10
262.70711733723101
20
153.75975952821028
30
0
10
261.78304212429168
20
153.61190787879474
30
0
10
260.72563488596523
20
153.52930119571514
30
0
10
259.53811779618269
20
153.52930119571514
30
0
0
SPLINE
5
983
100
AcDbEntity
8
INTERIOR_PROFILES
100
AcDbSpline
70
0
71
3
72
14
73
10
74
0
42
0.000000001
43
0.0000000001
44
0.0000000001
40
-0.76201176022955863
40
-0.76201176022955863
40
-0.76201176022955863
40
-0.76201176022955863
40
-0.7460860347913344
40
-0.7460860347913344
40
-0.7460860347913344
40
-0
40
-0
40
-0
40
0.0077858597379633181
40
0.0077858597379633181
40
0.0077858597379633181
40
0.0077858597379633181
10
264.34171389666318
20
153.95127431358947
30
0
10
264.33036863199123
20
153.95056550543583
30
0
10
264.31905570978529
20
153.94984203090738
30
0
10
264.30776972900105
20
153.94910510117921
30
0
10
263.7790457669613
20
153.91458152603988
30
0
10
263.29608733982138
20
153.85046109379101
30
0
10
262.73678563347789
20
153.76441510792944
30
0
10
262.731838586241
20
153.76365402754692
30
0
10
262.72689153900404
20
153.76289294716443
30
0
10
262.72194449176914
20
153.76213186678223
30
0
0
LINE
5
984
100
AcDbEntity
8
INTERIOR_PROFILES
100
AcDbLine
10
264.34171389666318
20
153.95127431358947
30
0
11
259.0856242976779
21
156.98587905844843
31
0
0
LINE
5
985
100
AcDbEntity
8
INTERIOR_PROFILES
100
AcDbLine
10
259.0856242976779
20
156.98587905844843
30
0
11
253.97580396323693
21
154.0357229128474
31
0
0
SPLINE
5
986
100
AcDbEntity
8
INTERIOR_PROFILES
100
AcDbSpline
70
0
71
3
72
8
73
4
74
0
42
0.000000001
43
0.0000000001
44
0.0000000001
40
-1
40
-1
40
-1
40
-1
40
-0.95242069724825273
40
-0.95242069724825273
40
-0.95242069724825273
40
-0.95242069724825273
10
254.33284893631938
20
154.04249241885967
30
0
10
254.2144449025389
20
154.04249241885967
30
0
10
254.09537785773554
20
154.04025679832432
30
0
10
253.97580396323693
20
154.0357229128474
30
0
0
LINE
5
987
100
AcDbEntity
8
INTERIOR_PROFILES
100
AcDbLine
10
254.33284893631938
20
154.04249241885967
30
0
11
255.20137529663455
21
154.04249241885967
31
0
0
LINE
5
988
100
AcDbEntity
8
INTERIOR_PROFILES
100
AcDbLine
10
255.20137529663455
20
154.04249241885967
30
0
11
258.11911440340748
21
153.62567719394113
31
0
0
ARC
5
989
100
AcDbEntity
8
INTERIOR_PROFILES
100
AcDbCircle
10
257.41201534867292
20
148.6759286218626
30
0
40
4.9999999999999716
210
0
220
-0
230
1
100
AcDbArc
50
77.534382387467559
51
81.869987083344256
0
LINE
5
990
100
AcDbEntity
8
INTERIOR_PROFILES
100
AcDbLine
10
381.67742106740207
20
58.015752039526305
30
0
11
388.60562429767759
21
62.01575203952622
31
0
0
LINE
5
991
100
AcDbEntity
8
INTERIOR_PROFILES
100
AcDbLine
10
388.60562429767759
20
62.01575203952622
30
0
11
388.60562429767765
21
70.015752039526234
31
0
0
LINE
5
992
100
AcDbEntity
8
INTERIOR_PROFILES
100
AcDbLine
10
388.60562429767765
20
70.015752039526234
30
0
11
387.45820351896486
21
70.678215734989891
31
0
0
SPLINE
5
993
100
AcDbEntity
8
INTERIOR_PROFILES
100
AcDbSpline
70
0
71
3
72
14
73
10
74
0
42
0.000000001
43
0.0000000001
44
0.0000000001
40
-1.0088631607798042
40
-1.0088631607798042
40
-1.0088631607798042
40
-1.0088631607798042
40
-1
40
-1
40
-1
40
-0.71343267843380431
40
-0.71343267843380431
40
-0.71343267843380431
40
-0.12194735798427289
40
-0.12194735798427289
40
-0.12194735798427289
40
-0.12194735798427289
10
384.44632536469294
20
63.427528905539916
30
0
10
384.4567220243157
20
63.439225175790732
30
0
10
384.46711868393709
20
63.450921446040063
30
0
10
384.47751534355831
20
63.46261771628923
30
0
10
385.05292152230345
20
64.109951226743803
30
0
10
385.56073788606005
20
64.824295763741162
30
0
10
385.98157111994328
20
65.586507568364539
30
0
10
386.85018614149828
20
67.159740311875154
30
0
10
387.32221413063803
20
68.913337834230589
30
0
10
387.45820351896475
20
70.678215734989863
30
0
0
SPLINE
5
994
100
AcDbEntity
8
INTERIOR_PROFILES
100
AcDbSpline
70
0
71
3
72
14
73
10
74
0
42
0.000000001
43
0.0000000001
44
0.0000000001
40
-0.78622517682458126
40
-0.78622517682458126
40
-0.78622517682458126
40
-0.78622517682458126
40
-0.61293714439644309
40
-0.61293714439644309
40
-0.61293714439644309
40
-0
40
-0
40
-0
40
0.0090488315035110317
40
0.0090488315035110317
40
0.0090488315035110317
40
0.0090488315035110317
10
378.18721963810646
20
60.030820774256199
30
0
10
378.70506655496689
20
60.114906458789434
30
0
10
379.2201106336131
20
60.235078034976617
30
0
10
379.72680786949923
20
60.394586922794943
30
0
10
381.51904679382551
20
60.958785851222139
30
0
10
383.16308597283967
20
62.037352897402734
30
0
10
384.41448199989213
20
63.393031926709526
30
0
10
384.4250964548761
20
63.404530919608881
30
0
10
384.43571090986012
20
63.416029912508229
30
0
10
384.44632536484653
20
63.427528905410206
30
0
0
LINE
5
995
100
AcDbEntity
8
INTERIOR_PROFILES
100
AcDbLine
10
378.18721963810646
20
60.030820774256199
30
0
11
381.67742106740207
21
58.015752039526305
31
0
0
LWPOLYLINE
5
996
100
AcDbEntity
8
INTERIOR_PROFILES
100
AcDbPolyline
90
6
70
1
43
0.0
10
355.88921783712669
20
103.33575203952641
10
362.81742106740228
20
107.33575203952633
10
369.74562429767775
20
103.33575203952623
10
369.74562429767758
20
95.335752039526227
10
362.81742106740205
20
91.335752039526298
10
355.88921783712658
20
95.335752039526383
0
LINE
5
997
100
AcDbEntity
8
INTERIOR_PROFILES
100
AcDbLine
10
135.64105901216857
20
73.521331176413383
30
0
11
129.56921783712667
21
70.015752039526404
31
0
0
LINE
5
998
100
AcDbEntity
8
INTERIOR_PROFILES
100
AcDbLine
10
129.56921783712667
20
70.015752039526404
30
0
11
129.56921783712656
21
62.015752039526376
31
0
0
LINE
5
999
100
AcDbEntity
8
INTERIOR_PROFILES
100
AcDbLine
10
129.56921783712656
20
62.015752039526376
30
0
11
134.69760602977368
21
59.054875735992589
31
0
0
SPLINE
5
1000
100
AcDbEntity
8
INTERIOR_PROFILES
100
AcDbSpline
70
0
71
3
72
11
73
7
74
0
42
0.000000001
43
0.0000000001
44
0.0000000001
40
-0.56501443194397916
40
-0.56501443194397916
40
-0.56501443194397916
40
-0.56501443194397916
40
-0.55854937691977424
40
-0.55854937691977424
40
-0.55854937691977424
40
-0.38965600383131044
40
-0.38965600383131044
40
-0.38965600383131044
40
-0.38965600383131044
10
136.66400924108672
20
60.808192388579592
30
0
10
136.63736519557639
20
60.791709243390038
30
0
10
136.61069941257358
20
60.774995562934315
30
0
10
136.58412142323738
20
60.758115762982058
30
0
10
135.88979689667127
20
60.317147149362775
30
0
10
135.23791722187113
20
59.729336495527576
30
0
10
134.69760602977379
20
59.054875735992731
30
0
0
SPLINE
5
1001
100
AcDbEntity
8
INTERIOR_PROFILES
100
AcDbSpline
70
0
71
3
72
8
73
4
74
0
42
0.000000001
43
0.0000000001
44
0.0000000001
40
-1
40
-1
40
-1
40
-1
40
-0.02778577486257516
40
-0.02778577486257516
40
-0.02778577486257516
40
-0.02778577486257516
10
134.96334418654445
20
68.397338896368225
30
0
10
134.96334418654445
20
65.745732245821273
30
0
10
135.50585436632866
20
63.138151824885867
30
0
10
136.66400924108669
20
60.808192388579556
30
0
0
SPLINE
5
1002
100
AcDbEntity
8
INTERIOR_PROFILES
100
AcDbSpline
70
0
71
3
72
8
73
4
74
0
42
0.000000001
43
0.0000000001
44
0.0000000001
40
-0.36855777997239036
40
-0.36855777997239036
40
-0.36855777997239036
40
-0.36855777997239036
40
-0
40
-0
40
-0
40
-0
10
135.64105901216857
20
73.521331176413383
30
0
10
135.18237498727007
20
71.876089932924131
30
0
10
134.96334418654442
20
70.149675690773847
30
0
10
134.96334418654445
20
68.397338896368225
30
0
0
LINE
5
1003
100
AcDbEntity
8
INTERIOR_PROFILES
100
AcDbLine
10
93.14719723869203
20
154.79103989760995
30
0
11
89.345624297677944
21
156.9858790584484
31
0
0
LINE
5
1004
100
AcDbEntity
8
INTERIOR_PROFILES
100
AcDbLine
10
89.345624297677944
20
156.9858790584484
30
0
11
85.960247919578478
21
155.03133109524447
31
0
0
SPLINE
5
1005
100
AcDbEntity
8
INTERIOR_PROFILES
100
AcDbSpline
70
0
71
3
72
8
73
4
74
0
42
0.000000001
43
0.0000000001
44
0.0000000001
40
-1
40
-1
40
-1
40
-1
40
-0.87836449887381296
40
-0.87836449887381296
40
-0.87836449887381296
40
-0.87836449887381296
10
87.895900160074234
20
155.06888440189189
30
0
10
87.238551110961211
20
155.06888440189189
30
0
10
86.593465269832862
20
155.05652724489062
30
0
10
85.960247919578478
20
155.03133109524447
30
0
0
SPLINE
5
1006
100
AcDbEntity
8
INTERIOR_PROFILES
100
AcDbSpline
70
0
71
3
72
8
73
4
74
0
42
0.000000001
43
0.0000000001
44
0.0000000001
40
-0.32102282830300272
40
-0.32102282830300272
40
-0.32102282830300272
40
-0.32102282830300272
40
-0
40
-0
40
-0
40
-0
10
93.14719723869203
20
154.79103989760992
30
0
10
91.500408705602624
20
154.98337325898416
30
0
10
89.753931967622009
20
155.06888440189189
30
0
10
87.895900160074234
20
155.06888440189189
30
0
0
LINE
5
1007
100
AcDbEntity
8
INTERIOR_PROFILES
100
AcDbLine
10
280.44921783712658
20
95.335752039526383
30
0
11
287.37742106740205
21
91.335752039526312
31
0
0
LINE
5
1008
100
AcDbEntity
8
INTERIOR_PROFILES
100
AcDbLine
10
287.37742106740205
20
91.335752039526312
30
0
11
294.30562429767758
21
95.335752039526227
31
0
0
LINE
5
1009
100
AcDbEntity
8
INTERIOR_PROFILES
100
AcDbLine
10
294.30562429767758
20
95.335752039526227
30
0
11
294.3056242976777
21
103.33575203952623
31
0
0
LINE
5
1010
100
AcDbEntity
8
INTERIOR_PROFILES
100
AcDbLine
10
294.3056242976777
20
103.33575203952623
30
0
11
287.37742106740222
21
107.33575203952633
31
0
0
LINE
5
1011
100
AcDbEntity
8
INTERIOR_PROFILES
100
AcDbLine
10
287.37742106740222
20
107.33575203952633
30
0
11
282.3421285005814
21
104.42862452062387
31
0
0
SPLINE
5
1012
100
AcDbEntity
8
INTERIOR_PROFILES
100
AcDbSpline
70
0
71
3
72
8
73
4
74
0
42
0.000000001
43
0.0000000001
44
0.0000000001
40
-1
40
-1
40
-1
40
-1
40
-0.95469080818388785
40
-0.95469080818388785
40
-0.95469080818388785
40
-0.95469080818388785
10
282.35336437821394
20
103.88120701846904
30
0
10
282.35336437821388
20
104.06316405953589
30
0
10
282.34978403329603
20
104.24557021887297
30
0
10
282.34212850058145
20
104.42862452062387
30
0
0
SPLINE
5
1013
100
AcDbEntity
8
INTERIOR_PROFILES
100
AcDbSpline
70
0
71
3
72
11
73
7
74
0
42
0.000000001
43
0.0000000001
44
0.0000000001
40
-0.42980854426855131
40
-0.42980854426855131
40
-0.42980854426855131
40
-0.42980854426855131
40
-0.30024168919965755
40
-0.30024168919965755
40
-0.30024168919965755
40
-0
40
-0
40
-0
40
-0
10
280.44921783712664
20
97.843030053010239
30
0
10
280.8809064137165
20
98.395704184357484
30
0
10
281.24225843092586
20
98.995702980356583
30
0
10
281.51450217934689
20
99.609742608095388
30
0
10
282.14536508681277
20
101.03263965201762
30
0
10
282.35336437821394
20
102.48365108414271
30
0
10
282.35336437821394
20
103.88120701846904
30
0
0
LINE
5
1014
100
AcDbEntity
8
INTERIOR_PROFILES
100
AcDbLine
10
280.44921783712664
20
97.843030053010239
30
0
11
280.44921783712658
21
95.335752039526383
31
0
0
LINE
5
1015
100
AcDbEntity
8
INTERIOR_PROFILES
100
AcDbLine
10
200.00562429767771
20
103.33575203952623
30
0
11
193.40259096105822
21
107.14801511389169
31
0
0
SPLINE
5
1016
100
AcDbEntity
8
INTERIOR_PROFILES
100
AcDbSpline
70
0
71
3
72
8
73
4
74
0
42
0.000000001
43
0.0000000001
44
0.0000000001
40
-1
40
-1
40
-1
40
-1
40
-0.90592922147584121
40
-0.90592922147584121
40
-0.90592922147584121
40
-0.90592922147584121
10
192.94141214081475
20
107.20427198060385
30
0
10
193.09811505260612
20
107.18468411662991
30
0
10
193.25181585446319
20
107.16593166143652
30
0
10
193.40259096105822
20
107.14801511389169
30
0
0
LINE
5
1017
100
AcDbEntity
8
INTERIOR_PROFILES
100
AcDbLine
10
192.86594620636089
20
107.21365697157724
30
0
11
192.94141214081475
21
107.20427198060385
31
0
0
LINE
5
1018
100
AcDbEntity
8
INTERIOR_PROFILES
100
AcDbLine
10
192.86594620636089
20
107.21365697157724
30
0
11
186.14921783712668
21
103.3357520395264
31
0
0
LINE
5
1019
100
AcDbEntity
8
INTERIOR_PROFILES
100
AcDbLine
10
186.14921783712668
20
103.3357520395264
30
0
11
186.1492178371266
21
95.335752039526383
31
0
0
LINE
5
1020
100
AcDbEntity
8
INTERIOR_PROFILES
100
AcDbLine
10
186.1492178371266
20
95.335752039526383
30
0
11
193.07742106740204
21
91.335752039526312
31
0
0
LINE
5
1021
100
AcDbEntity
8
INTERIOR_PROFILES
100
AcDbLine
10
193.07742106740204
20
91.335752039526312
30
0
11
200.00562429767763
21
95.335752039526227
31
0
0
LINE
5
1022
100
AcDbEntity
8
INTERIOR_PROFILES
100
AcDbLine
10
200.00562429767763
20
95.335752039526227
30
0
11
200.00562429767771
21
103.33575203952623
31
0
0
LINE
5
1023
100
AcDbEntity
8
INTERIOR_PROFILES
100
AcDbLine
10
322.59382752795347
20
86.345879058448418
30
0
11
315.66562429767794
21
90.345879058448418
31
0
0
LINE
5
1024
100
AcDbEntity
8
INTERIOR_PROFILES
100
AcDbLine
10
315.66562429767794
20
90.345879058448418
30
0
11
308.73742106740241
21
86.345879058448389
31
0
0
LINE
5
1025
100
AcDbEntity
8
INTERIOR_PROFILES
100
AcDbLine
10
308.73742106740241
20
86.345879058448389
30
0
11
308.73742106740247
21
80.442331608199481
31
0
0
SPLINE
5
1026
100
AcDbEntity
8
INTERIOR_PROFILES
100
AcDbSpline
70
0
71
3
72
8
73
4
74
0
42
0.000000001
43
0.0000000001
44
0.0000000001
40
-0.66155586377274656
40
-0.66155586377274656
40
-0.66155586377274656
40
-0.66155586377274656
40
-0.62229645648812137
40
-0.62229645648812137
40
-0.62229645648812137
40
-0.62229645648812137
10
309.02104358179434
20
79.899917365910625
30
0
10
308.9339747962573
20
80.081649397208125
30
0
10
308.83937732097803
20
80.262952598087026
30
0
10
308.73742106740332
20
80.442331608197833
30
0
0
SPLINE
5
1027
100
AcDbEntity
8
INTERIOR_PROFILES
100
AcDbSpline
70
0
71
3
72
11
73
7
74
0
42
0.000000001
43
0.0000000001
44
0.0000000001
40
-0.87719086189843443
40
-0.87719086189843443
40
-0.87719086189843443
40
-0.87719086189843443
40
-0.61604491998551492
40
-0.61604491998551492
40
-0.61604491998551492
40
-0.087721357915027456
40
-0.087721357915027456
40
-0.087721357915027456
40
-0.087721357915027456
10
322.5938275279521
20
85.686289896423332
30
0
10
320.89406993212992
20
85.542066277443141
30
0
10
319.2420332180161
20
85.241516859201226
30
0
10
317.65232807647129
20
84.771948715848623
30
0
10
314.43620043201878
20
83.821966830954565
30
0
10
311.49290900609907
20
82.161826448512798
30
0
10
309.0210435817188
20
79.899917365841517
30
0
0
LINE
5
1028
100
AcDbEntity
8
INTERIOR_PROFILES
100
AcDbLine
10
322.5938275279521
20
85.686289896423332
30
0
11
322.59382752795347
21
86.345879058448418
31
0
0
LINE
5
1029
100
AcDbEntity
8
INTERIOR_PROFILES
100
AcDbLine
10
209.43382752795344
20
80.826008788150375
30
0
11
209.43382752795344
21
86.345879058448418
31
0
0
LINE
5
1030
100
AcDbEntity
8
INTERIOR_PROFILES
100
AcDbLine
10
209.43382752795344
20
86.345879058448418
30
0
11
202.50562429767791
21
90.345879058448418
31
0
0
LINE
5
1031
100
AcDbEntity
8
INTERIOR_PROFILES
100
AcDbLine
10
202.50562429767791
20
90.345879058448418
30
0
11
195.57742106740244
21
86.345879058448389
31
0
0
LINE
5
1032
100
AcDbEntity
8
INTERIOR_PROFILES
100
AcDbLine
10
195.57742106740244
20
86.345879058448389
30
0
11
195.57742106740244
21
85.771373681868127
31
0
0
SPLINE
5
1033
100
AcDbEntity
8
INTERIOR_PROFILES
100
AcDbSpline
70
0
71
3
72
11
73
7
74
0
42
0.000000001
43
0.0000000001
44
0.0000000001
40
-0.91959503960121336
40
-0.91959503960121336
40
-0.91959503960121336
40
-0.91959503960121336
40
-0.66164255751098888
40
-0.66164255751098888
40
-0.66164255751098888
40
-0.054314045567661992
40
-0.054314045567661992
40
-0.054314045567661992
40
-0.054314045567661992
10
209.43382752795287
20
80.82600878815083
30
0
10
208.31468621260936
20
81.769831166074397
30
0
10
207.09431339207259
20
82.588104221650582
30
0
10
205.79395713034535
20
83.264868335064378
30
0
10
202.73237219411368
20
84.858255375211058
30
0
10
199.26752751045723
20
85.651823515037805
30
0
10
195.5774210674069
20
85.771373681867985
30
0
0
LINE
5
1034
100
AcDbEntity
8
INTERIOR_PROFILES
100
AcDbLine
10
247.15382752795341
20
49.893576149738401
30
0
11
247.15382752795341
21
53.025879058448417
31
0
0
LINE
5
1035
100
AcDbEntity
8
INTERIOR_PROFILES
100
AcDbLine
10
247.15382752795341
20
53.025879058448417
30
0
11
240.22562429767791
21
57.025879058448403
31
0
0
LINE
5
1036
100
AcDbEntity
8
INTERIOR_PROFILES
100
AcDbLine
10
240.22562429767791
20
57.025879058448403
30
0
11
239.20774412276043
21
56.438205665456998
31
0
0
SPLINE
5
1037
100
AcDbEntity
8
INTERIOR_PROFILES
100
AcDbSpline
70
0
71
3
72
11
73
7
74
0
42
0.000000001
43
0.0000000001
44
0.0000000001
40
-0.97659497512680882
40
-0.97659497512680882
40
-0.97659497512680882
40
-0.97659497512680882
40
-0.62131138707760869
40
-0.62131138707760869
40
-0.62131138707760869
40
-0.092004972919362452
40
-0.092004972919362452
40
-0.092004972919362452
40
-0.092004972919362452
10
244.81937782329385
20
53.825227004394016
30
0
10
244.24954815155223
20
54.412405874474608
30
0
10
243.57918522786602
20
54.943736895720519
30
0
10
242.8301344446723
20
55.365604752095059
30
0
10
241.71418820507338
20
55.994109332147076
30
0
10
240.4394971644443
20
56.347365869970048
30
0
10
239.20774412276043
20
56.438205665457005
30
0
0
SPLINE
5
1038
100
AcDbEntity
8
INTERIOR_PROFILES
100
AcDbSpline
70
0
71
3
72
11
73
7
74
0
42
0.000000001
43
0.0000000001
44
0.0000000001
40
-0.66805861234909958
40
-0.66805861234909958
40
-0.66805861234909958
40
-0.66805861234909958
40
-0.62124597844926899
40
-0.62124597844926899
40
-0.62124597844926899
40
-0.023405041998001964
40
-0.023405041998001964
40
-0.023405041998001964
40
-0.023405041998001964
10
247.15382752795341
20
49.893576149738408
30
0
10
247.12454535170383
20
50.002340109221173
30
0
10
247.093014014696
20
50.110793432311731
30
0
10
247.05918151333606
20
50.218814984835269
30
0
10
246.62710895918767
20
51.598350822442249
30
0
10
245.80794926870067
20
52.865868503911322
30
0
10
244.81937782329379
20
53.825227004393952
30
0
0
LWPOLYLINE
5
1039
100
AcDbEntity
8
INTERIOR_PROFILES
100
AcDbPolyline
90
6
70
1
43
0.0
10
313.16562429767771
20
103.33575203952623
10
313.16562429767765
20
95.335752039526227
10
306.23742106740201
20
91.335752039526298
10
299.3092178371266
20
95.335752039526383
10
299.30921783712671
20
103.33575203952641
10
306.23742106740224
20
107.33575203952633
0
LWPOLYLINE
5
1040
100
AcDbEntity
8
INTERIOR_PROFILES
100
AcDbPolyline
90
6
70
1
43
0.0
10
360.31382752795344
20
111.66587905844843
10
353.38562429767791
20
107.66587905844841
10
346.45742106740244
20
111.66587905844838
10
346.45742106740244
20
119.6658790584484
10
353.38562429767791
20
123.66587905844841
10
360.31382752795344
20
119.66587905844841
0
LINE
5
1041
100
AcDbEntity
8
INTERIOR_PROFILES
100
AcDbLine
10
189.56800535041475
20
153.56659076340731
30
0
11
183.64562429767795
21
156.98587905844843
31
0
0
LINE
5
1042
100
AcDbEntity
8
INTERIOR_PROFILES
100
AcDbLine
10
183.64562429767795
20
156.98587905844843
30
0
11
178.54731622732064
21
154.04236952161597
31
0
0
SPLINE
5
1043
100
AcDbEntity
8
INTERIOR_PROFILES
100
AcDbSpline
70
0
71
3
72
8
73
4
74
0
42
0.000000001
43
0.0000000001
44
0.0000000001
40
-1
40
-1
40
-1
40
-1
40
-0.99516530568977168
40
-0.99516530568977168
40
-0.99516530568977168
40
-0.99516530568977168
10
178.60557880997661
20
154.04249241885967
30
0
10
178.58616314322123
20
154.04249241885967
30
0
10
178.5667423629354
20
154.04245165351026
30
0
10
178.54731622732061
20
154.04236952161594
30
0
0
SPLINE
5
1044
100
AcDbEntity
8
INTERIOR_PROFILES
100
AcDbSpline
70
0
71
3
72
11
73
7
74
0
42
0.000000001
43
0.0000000001
44
0.0000000001
40
-1
40
-1
40
-1
40
-1
40
-0.86491655454000382
40
-0.86491655454000382
40
-0.86491655454000382
40
-0
40
-0
40
-0
40
-0
10
183.17524607853107
20
153.72027290534231
30
0
10
182.91932394136688
20
153.74794011477917
30
0
10
182.67105875388299
20
153.7738711940633
30
0
10
182.4302509795109
20
153.79806609811823
30
0
10
180.88839934989679
20
153.95298199459492
30
0
10
179.68684120396824
20
154.04249241885967
30
0
10
178.60557880997661
20
154.04249241885967
30
0
0
SPLINE
5
1045
100
AcDbEntity
8
INTERIOR_PROFILES
100
AcDbSpline
70
0
71
3
72
11
73
7
74
0
42
0.000000001
43
0.0000000001
44
0.0000000001
40
-1
40
-1
40
-1
40
-1
40
-0.9211151600973716
40
-0.9211151600973716
40
-0.9211151600973716
40
-0
40
-0
40
-0
40
-0
10
186.74340572953227
20
153.45598271426982
30
0
10
186.69782931967728
20
153.45598271426982
30
0
10
186.64745638677789
20
153.45636432071962
30
0
10
186.5926811519125
20
153.45721073847608
30
0
10
185.95308678505182
20
153.4670941105941
30
0
10
184.75724520086513
20
153.54924627383821
30
0
10
183.17524607853107
20
153.72027290534231
30
0
0
SPLINE
5
1046
100
AcDbEntity
8
INTERIOR_PROFILES
100
AcDbSpline
70
0
71
3
72
8
73
4
74
0
42
0.000000001
43
0.0000000001
44
0.0000000001
40
-0.64398009750039498
40
-0.64398009750039498
40
-0.64398009750039498
40
-0.64398009750039498
40
-0
40
-0
40
-0
40
-0
10
189.56800535041475
20
153.56659076340725
30
0
10
188.45618159250017
20
153.49158949958618
30
0
10
187.50814310079386
20
153.45598271426982
30
0
10
186.74340572953227
20
153.45598271426982
30
0
0
LWPOLYLINE
5
1047
100
AcDbEntity
8
INTERIOR_PROFILES
100
AcDbPolyline
90
6
70
1
43
0.0
10
381.67742106740218
20
140.65575203952631
10
388.60562429767765
20
136.65575203952625
10
388.60562429767759
20
128.65575203952625
10
381.67742106740207
20
124.65575203952631
10
374.74921783712659
20
128.65575203952639
10
374.74921783712665
20
136.65575203952642
0
SPLINE
5
1048
100
AcDbEntity
8
INTERIOR_PROFILES
100
AcDbSpline
70
0
71
3
72
8
73
4
74
0
42
0.000000001
43
0.0000000001
44
0.0000000001
40
-0.11473706845385319
40
-0.11473706845385319
40
-0.11473706845385319
40
-0.11473706845385319
40
-0
40
-0
40
-0
40
-0
10
261.933384220785
20
95.137047485275176
30
0
10
262.01946723061508
20
95.140632005485884
30
0
10
262.0780779056139
20
95.142202883337205
30
0
10
262.104112058878
20
95.142202883337205
30
0
0
LINE
5
1049
100
AcDbEntity
8
INTERIOR_PROFILES
100
AcDbLine
10
261.933384220785
20
95.137047485275176
30
0
11
268.51742106740204
21
91.335752039526298
31
0
0
LINE
5
1050
100
AcDbEntity
8
INTERIOR_PROFILES
100
AcDbLine
10
268.51742106740204
20
91.335752039526298
30
0
11
274.06901248706043
21
94.540964840096805
31
0
0
SPLINE
5
1051
100
AcDbEntity
8
INTERIOR_PROFILES
100
AcDbSpline
70
0
71
3
72
8
73
4
74
0
42
0.000000001
43
0.0000000001
44
0.0000000001
40
-1
40
-1
40
-1
40
-1
40
-0.90976801325419121
40
-0.90976801325419121
40
-0.90976801325419121
40
-0.90976801325419121
10
272.80792370438581
20
94.482374697302049
30
0
10
273.22688921617333
20
94.482374697302049
30
0
10
273.6468753431862
20
94.500377136980148
30
0
10
274.06901248706043
20
94.540964840096805
30
0
0
SPLINE
5
1052
100
AcDbEntity
8
INTERIOR_PROFILES
100
AcDbSpline
70
0
71
3
72
11
73
7
74
0
42
0.000000001
43
0.0000000001
44
0.0000000001
40
-0.99940480073797067
40
-0.99940480073797067
40
-0.99940480073797067
40
-0.99940480073797067
40
-0.86492359553895104
40
-0.86492359553895104
40
-0.86492359553895104
40
-0
40
-0
40
-0
40
-0
10
268.24162935610968
20
94.804228593382703
30
0
10
268.49634343305786
20
94.776699954269148
30
0
10
268.74346961202286
20
94.750892000267839
30
0
10
268.98320476946128
20
94.726804776042911
30
0
10
270.52507520438076
20
94.571886409923707
30
0
10
271.72664932417109
20
94.482374697302049
30
0
10
272.80792370438581
20
94.482374697302049
30
0
0
SPLINE
5
1053
100
AcDbEntity
8
INTERIOR_PROFILES
100
AcDbSpline
70
0
71
3
72
11
73
7
74
0
42
0.000000001
43
0.0000000001
44
0.0000000001
40
-1
40
-1
40
-1
40
-1
40
-0
40
-0
40
-0
40
0.00093081848801937809
40
0.00093081848801937809
40
0.00093081848801937809
40
0.00093081848801937809
10
262.104112058878
20
95.142202883337205
30
0
10
264.11833930356619
20
95.142202883337205
30
0
10
266.16119957240585
20
95.030362946244779
30
0
10
268.23535082014183
20
94.804908153412626
30
0
10
268.23744356151741
20
94.804680677921723
30
0
10
268.23953630289293
20
94.804453202430807
30
0
10
268.24162904426851
20
94.804225726939933
30
0
0
LINE
5
1054
100
AcDbEntity
8
INTERIOR_PROFILES
100
AcDbLine
10
190.57382752795345
20
85.504746865951219
30
0
11
190.57382752795343
21
86.345879058448418
31
0
0
LINE
5
1055
100
AcDbEntity
8
INTERIOR_PROFILES
100
AcDbLine
10
190.57382752795343
20
86.345879058448418
30
0
11
183.64562429767795
21
90.345879058448418
31
0
0
LINE
5
1056
100
AcDbEntity
8
INTERIOR_PROFILES
100
AcDbLine
10
183.64562429767795
20
90.345879058448418
30
0
11
176.7174210674024
21
86.345879058448389
31
0
0
LINE
5
1057
100
AcDbEntity
8
INTERIOR_PROFILES
100
AcDbLine
10
176.7174210674024
20
86.345879058448389
30
0
11
176.71742106740243
21
78.345879058448389
31
0
0
LINE
5
1058
100
AcDbEntity
8
INTERIOR_PROFILES
100
AcDbLine
10
176.71742106740243
20
78.345879058448389
30
0
11
176.92732576848118
21
78.224690522776356
31
0
0
SPLINE
5
1059
100
AcDbEntity
8
INTERIOR_PROFILES
100
AcDbSpline
70
0
71
3
72
8
73
4
74
0
42
0.000000001
43
0.0000000001
44
0.0000000001
40
-0.99994194244814105
40
-0.99994194244814105
40
-0.99994194244814105
40
-0.99994194244814105
40
-0.9642604456208923
40
-0.9642604456208923
40
-0.9642604456208923
40
-0.9642604456208923
10
177.38596244342304
20
78.724031534735644
30
0
10
177.23053298843993
20
78.559704884216529
30
0
10
177.07763759778931
20
78.39324331815952
30
0
10
176.92732576848118
20
78.224690522776356
30
0
0
SPLINE
5
1060
100
AcDbEntity
8
INTERIOR_PROFILES
100
AcDbSpline
70
0
71
3
72
14
73
10
74
0
42
0.000000001
43
0.0000000001
44
0.0000000001
40
-0.79552996511732454
40
-0.79552996511732454
40
-0.79552996511732454
40
-0.79552996511732454
40
-0.61604582562385368
40
-0.61604582562385368
40
-0.61604582562385368
40
-0
40
-0
40
-0
40
0.00019831042781457838
40
0.00019831042781457838
40
0.00019831042781457838
40
0.00019831042781457838
10
190.57382752795348
20
85.504746865951233
30
0
10
189.42708766769812
20
85.337575184097432
30
0
10
188.30504801288095
20
85.094684448687147
30
0
10
187.21245206178514
20
84.771953798283036
30
0
10
183.46232028598803
20
83.664241046931267
30
0
10
180.09164713030489
20
81.582150194616929
30
0
10
177.388026379949
20
78.726212921801064
30
0
10
177.38733820596084
20
78.72548597748289
30
0
10
177.38665003197269
20
78.72475903316473
30
0
10
177.38596185798454
20
78.724032088846556
30
0
0
LINE
5
1061
100
AcDbEntity
8
INTERIOR_PROFILES
100
AcDbLine
10
341.45382752795342
20
79.43609690350786
30
0
11
341.45382752795342
21
86.345879058448418
31
0
0
LINE
5
1062
100
AcDbEntity
8
INTERIOR_PROFILES
100
AcDbLine
10
341.45382752795342
20
86.345879058448418
30
0
11
334.52562429767795
21
90.345879058448418
31
0
0
LINE
5
1063
100
AcDbEntity
8
INTERIOR_PROFILES
100
AcDbLine
10
334.52562429767795
20
90.345879058448418
30
0
11
327.59742106740242
21
86.345879058448389
31
0
0
LINE
5
1064
100
AcDbEntity
8
INTERIOR_PROFILES
100
AcDbLine
10
327.59742106740242
20
86.345879058448389
30
0
11
327.59742106740242
21
85.677377050577391
31
0
0
SPLINE
5
1065
100
AcDbEntity
8
INTERIOR_PROFILES
100
AcDbSpline
70
0
71
3
72
11
73
7
74
0
42
0.000000001
43
0.0000000001
44
0.0000000001
40
-0.99884596625074085
40
-0.99884596625074085
40
-0.99884596625074085
40
-0.99884596625074085
40
-0.66164150607237826
40
-0.66164150607237826
40
-0.66164150607237826
40
-0.14179880416608501
40
-0.14179880416608501
40
-0.14179880416608501
40
-0.14179880416608501
10
340.87593517478462
20
79.921002279280174
30
0
10
339.49689201863805
20
81.253678426907911
30
0
10
337.93370189478145
20
82.380186874043318
30
0
10
336.2338308853449
20
83.264875561589406
30
0
10
333.61326786559636
20
84.628733434159187
30
0
10
330.69725640624495
20
85.406603264818713
30
0
10
327.59742106740242
20
85.677377050577405
30
0
0
SPLINE
5
1066
100
AcDbEntity
8
INTERIOR_PROFILES
100
AcDbSpline
70
0
71
3
72
8
73
4
74
0
42
0.000000001
43
0.0000000001
44
0.0000000001
40
-0.046401292429015029
40
-0.046401292429015029
40
-0.046401292429015029
40
-0.046401292429015029
40
-0.0011467546830762972
40
-0.0011467546830762972
40
-0.0011467546830762972
40
-0.0011467546830762972
10
341.42589404293733
20
79.375455584632462
30
0
10
341.24630192147163
20
79.560556793710688
30
0
10
341.06290450784371
20
79.742455028496011
30
0
10
340.87593517478456
20
79.921002279280174
30
0
0
SPLINE
5
1067
100
AcDbEntity
8
INTERIOR_PROFILES
100
AcDbSpline
70
0
71
3
72
8
73
4
74
0
42
0.000000001
43
0.0000000001
44
0.0000000001
40
-0.66040859809945562
40
-0.66040859809945562
40
-0.66040859809945562
40
-0.66040859809945562
40
-0.65147320112656337
40
-0.65147320112656337
40
-0.65147320112656337
40
-0.65147320112656337
10
341.45382752795342
20
79.436096903507888
30
0
10
341.44443647975095
20
79.415891496966339
30
0
10
341.43512464931717
20
79.395676079826416
30
0
10
341.42589404479162
20
79.37545558868257
30
0
0
LINE
5
1068
100
AcDbEntity
8
INTERIOR_PROFILES
100
AcDbLine
10
296.80562429767798
20
107.66587905844841
30
0
11
303.73382752795345
21
111.66587905844843
31
0
0
LINE
5
1069
100
AcDbEntity
8
INTERIOR_PROFILES
100
AcDbLine
10
303.73382752795345
20
111.66587905844843
30
0
11
303.73382752795345
21
119.66587905844841
31
0
0
LINE
5
1070
100
AcDbEntity
8
INTERIOR_PROFILES
100
AcDbLine
10
303.73382752795345
20
119.66587905844841
30
0
11
296.96929300283529
21
123.5713848874679
31
0
0
SPLINE
5
1071
100
AcDbEntity
8
INTERIOR_PROFILES
100
AcDbSpline
70
0
71
3
72
11
73
7
74
0
42
0.000000001
43
0.0000000001
44
0.0000000001
40
-0.99999934450270156
40
-0.99999934450270156
40
-0.99999934450270156
40
-0.99999934450270156
40
-0.71461558721856477
40
-0.71461558721856477
40
-0.71461558721856477
40
-0.3869832867190941
40
-0.3869832867190941
40
-0.3869832867190941
40
-0.3869832867190941
10
292.61704381939455
20
113.67591857688549
30
0
10
293.62214943836977
20
114.99169120946755
30
0
10
294.47392765304068
20
116.42966617871789
30
0
10
295.16937945075443
20
117.96117998969504
30
0
10
295.96778674113358
20
119.71942088578629
30
0
10
296.56097373840873
20
121.59274425623259
30
0
10
296.96929300283466
20
123.57138488746511
30
0
0
SPLINE
5
1072
100
AcDbEntity
8
INTERIOR_PROFILES
100
AcDbSpline
70
0
71
3
72
8
73
4
74
0
42
0.000000001
43
0.0000000001
44
0.0000000001
40
-0.18461199952653062
40
-0.18461199952653062
40
-0.18461199952653062
40
-0.18461199952653062
40
-0
40
-0
40
-0
40
-0
10
290.49040540738594
20
111.31197238474989
30
0
10
291.25739725336234
20
112.03525513414682
30
0
10
291.96842291508852
20
112.82681307648127
30
0
10
292.61704381938659
20
113.67591857689149
30
0
0
LINE
5
1073
100
AcDbEntity
8
INTERIOR_PROFILES
100
AcDbLine
10
290.49040540738594
20
111.31197238474989
30
0
11
296.80562429767798
21
107.66587905844841
31
0
0
LWPOLYLINE
5
1074
100
AcDbEntity
8
INTERIOR_PROFILES
100
AcDbPolyline
90
6
70
1
43
0.0
10
337.02921783712668
20
103.33575203952641
10
343.95742106740221
20
107.33575203952633
10
350.88562429767768
20
103.33575203952623
10
350.88562429767762
20
95.335752039526227
10
343.95742106740204
20
91.335752039526312
10
337.02921783712662
20
95.335752039526383
0
LWPOLYLINE
5
1075
100
AcDbEntity
8
INTERIOR_PROFILES
100
AcDbPolyline
90
6
70
1
43
0.0
10
96.273827527953486
20
78.345879058448418
10
89.345624297677944
20
74.345879058448403
10
82.417421067402472
20
78.345879058448389
10
82.417421067402444
20
86.345879058448389
10
89.345624297677944
20
90.345879058448418
10
96.273827527953443
20
86.345879058448418
0
LWPOLYLINE
5
1076
100
AcDbEntity
8
INTERIOR_PROFILES
100
AcDbPolyline
90
6
70
1
43
0.0
10
105.70562429767762
20
62.01575203952622
10
98.777421067402031
20
58.015752039526298
10
91.84921783712656
20
62.01575203952639
10
91.849217837126673
20
70.015752039526404
10
98.77742106740223
20
74.015752039526305
10
105.7056242976777
20
70.015752039526234
0
LINE
5
1077
100
AcDbEntity
8
INTERIOR_PROFILES
100
AcDbLine
10
136.49742106740203
20
91.335752039526298
30
0
11
143.42562429767759
21
95.335752039526227
31
0
0
LINE
5
1078
100
AcDbEntity
8
INTERIOR_PROFILES
100
AcDbLine
10
143.42562429767759
20
95.335752039526227
30
0
11
143.4256242976777
21
103.33575203952623
31
0
0
LINE
5
1079
100
AcDbEntity
8
INTERIOR_PROFILES
100
AcDbLine
10
143.4256242976777
20
103.33575203952623
30
0
11
137.75677405912003
21
106.60866425075326
31
0
0
SPLINE
5
1080
100
AcDbEntity
8
INTERIOR_PROFILES
100
AcDbSpline
70
0
71
3
72
11
73
7
74
0
42
0.000000001
43
0.0000000001
44
0.0000000001
40
-0.83887056988356834
40
-0.83887056988356834
40
-0.83887056988356834
40
-0.83887056988356834
40
-0.79604028671632399
40
-0.79604028671632399
40
-0.79604028671632399
40
-0.61249548651993313
40
-0.61249548651993313
40
-0.61249548651993313
40
-0.61249548651993313
10
134.24516313104252
20
106.03541031368458
30
0
10
134.4710292620012
20
106.05613234064029
30
0
10
134.69611647720214
20
106.07966844192768
30
0
10
134.92040065499344
20
106.10605050614313
30
0
10
135.88154757151446
20
106.21910814543739
30
0
10
136.82845813811571
20
106.38692115277209
30
0
10
137.75677405912
20
106.60866425075326
30
0
0
LINE
5
1081
100
AcDbEntity
8
INTERIOR_PROFILES
100
AcDbLine
10
134.24516313104252
20
106.03541031368458
30
0
11
129.56921783712667
21
103.33575203952641
31
0
0
LINE
5
1082
100
AcDbEntity
8
INTERIOR_PROFILES
100
AcDbLine
10
129.56921783712667
20
103.33575203952641
30
0
11
129.56921783712656
21
95.335752039526383
31
0
0
LINE
5
1083
100
AcDbEntity
8
INTERIOR_PROFILES
100
AcDbLine
10
129.56921783712656
20
95.335752039526383
30
0
11
136.49742106740203
21
91.335752039526298
31
0
0
LWPOLYLINE
5
1084
100
AcDbEntity
8
INTERIOR_PROFILES
100
AcDbPolyline
90
5
70
1
43
0.0
10
67.985624297677589
20
161.97575203952621
10
61.057421067401982
20
157.97575203952633
10
54.129217837126582
20
161.97575203952638
10
54.129217837126689
20
169.85575203952618
10
67.985624297677703
20
169.85575203952618
0
LWPOLYLINE
5
1085
100
AcDbEntity
8
INTERIOR_PROFILES
100
AcDbPolyline
90
5
70
1
43
0.0
10
124.5656242976776
20
161.97575203952624
10
117.63742106740203
20
157.9757520395263
10
110.70921783712657
20
161.97575203952638
10
110.70921783712669
20
169.85575203952618
10
124.5656242976777
20
169.85575203952618
0
LINE
5
1086
100
AcDbEntity
8
INTERIOR_PROFILES
100
AcDbLine
10
187.64934015505395
20
37.561848063599051
30
0
11
186.14921783712668
21
36.69575203952639
31
0
0
LINE
5
1087
100
AcDbEntity
8
INTERIOR_PROFILES
100
AcDbLine
10
186.14921783712668
20
36.69575203952639
30
0
11
186.1492178371266
21
28.815752039526188
31
0
0
LINE
5
1088
100
AcDbEntity
8
INTERIOR_PROFILES
100
AcDbLine
10
186.1492178371266
20
28.815752039526188
30
0
11
200.00562429767763
21
28.815752039526195
31
0
0
LINE
5
1089
100
AcDbEntity
8
INTERIOR_PROFILES
100
AcDbLine
10
200.00562429767763
20
28.815752039526195
30
0
11
200.00562429767771
21
36.695752039526226
31
0
0
LINE
5
1090
100
AcDbEntity
8
INTERIOR_PROFILES
100
AcDbLine
10
200.00562429767771
20
36.695752039526226
30
0
11
199.55673255012255
21
36.954919810814211
31
0
0
SPLINE
5
1091
100
AcDbEntity
8
INTERIOR_PROFILES
100
AcDbSpline
70
0
71
3
72
11
73
7
74
0
42
0.000000001
43
0.0000000001
44
0.0000000001
40
-1
40
-1
40
-1
40
-1
40
-0.85254158890981979
40
-0.85254158890981979
40
-0.85254158890981979
40
-0.70031773872807068
40
-0.70031773872807068
40
-0.70031773872807068
40
-0.70031773872807068
10
195.0219951570034
20
36.637805014227126
30
0
10
195.78587460740593
20
36.637805014227119
30
0
10
196.53980105076715
20
36.662552384155283
30
0
10
197.28362116366162
20
36.713056049992069
30
0
10
198.0514794403806
20
36.765191851572531
30
0
10
198.80973087625182
20
36.845628751477477
30
0
10
199.55673255012249
20
36.954919810814204
30
0
0
SPLINE
5
1092
100
AcDbEntity
8
INTERIOR_PROFILES
100
AcDbSpline
70
0
71
3
72
8
73
4
74
0
42
0.000000001
43
0.0000000001
44
0.0000000001
40
-0.37637028006703444
40
-0.37637028006703444
40
-0.37637028006703444
40
-0.37637028006703444
40
-0
40
-0
40
-0
40
-0
10
187.64934015505392
20
37.561848063599044
30
0
10
189.97929102591883
20
36.936314546151337
30
0
10
192.45340662178455
20
36.637805014227126
30
0
10
195.0219951570034
20
36.637805014227126
30
0
0
SPLINE
5
1093
100
AcDbEntity
8
INTERIOR_PROFILES
100
AcDbSpline
70
0
71
3
72
17
73
13
74
0
42
0.000000001
43
0.0000000001
44
0.0000000001
40
-0.87396574980333841
40
-0.87396574980333841
40
-0.87396574980333841
40
-0.87396574980333841
40
-0.86824604048673959
40
-0.86824604048673959
40
-0.86824604048673959
40
-0.55808226842685704
40
-0.55808226842685704
40
-0.55808226842685704
40
-0.28801472242618509
40
-0.28801472242618509
40
-0.28801472242618509
40
-0
40
-0
40
-0
40
-0
10
45.90952307822144
20
160.11893513473214
30
0
10
45.907405531767644
20
160.1372742016683
30
0
10
45.905230791896386
20
160.15563956987944
30
0
10
45.902998028660349
20
160.17403171462888
30
0
10
45.781921549231974
20
161.17138606884581
30
0
10
45.492650924449087
20
162.28578247308175
30
0
10
44.797998769847993
20
163.3823484111355
30
0
10
44.193147334519836
20
164.33715647898723
30
0
10
43.242647317553384
20
165.22305862838365
30
0
10
42.19070065391616
20
165.75498064095032
30
0
10
41.068847507096891
20
166.32225121111122
30
0
10
39.916474903489814
20
166.50583794650859
30
0
10
38.92228856682781
20
166.50583794650859
30
0
0
LINE
5
1094
100
AcDbEntity
8
INTERIOR_PROFILES
100
AcDbLine
10
45.90952307822144
20
160.11893513473214
30
0
11
49.125624297677604
21
161.97575203952624
31
0
0
LINE
5
1095
100
AcDbEntity
8
INTERIOR_PROFILES
100
AcDbLine
10
49.125624297677604
20
161.97575203952624
30
0
11
49.125624297677675
21
169.85575203952618
31
0
0
LINE
5
1096
100
AcDbEntity
8
INTERIOR_PROFILES
100
AcDbLine
10
49.125624297677675
20
169.85575203952618
30
0
11
35.269217837126696
21
169.85575203952618
31
0
0
LINE
5
1097
100
AcDbEntity
8
INTERIOR_PROFILES
100
AcDbLine
10
35.269217837126696
20
169.85575203952618
30
0
11
35.269217837126661
21
166.18528735932648
31
0
0
SPLINE
5
1098
100
AcDbEntity
8
INTERIOR_PROFILES
100
AcDbSpline
70
0
71
3
72
8
73
4
74
0
42
0.000000001
43
0.0000000001
44
0.0000000001
40
-1
40
-1
40
-1
40
-1
40
-0.80845483812930108
40
-0.80845483812930108
40
-0.80845483812930108
40
-0.80845483812930108
10
35.782923275245437
20
166.2438989218544
30
0
10
35.620555046184272
20
166.22272047216666
30
0
10
35.449235535302812
20
166.20312662389063
30
0
10
35.269217837129993
20
166.18528735932682
30
0
0
SPLINE
5
1099
100
AcDbEntity
8
INTERIOR_PROFILES
100
AcDbSpline
70
0
71
3
72
11
73
7
74
0
42
0.000000001
43
0.0000000001
44
0.0000000001
40
-1
40
-1
40
-1
40
-1
40
-0.80896502921793834
40
-0.80896502921793834
40
-0.80896502921793834
40
-0
40
-0
40
-0
40
-0
10
38.92228856682781
20
166.50583794650859
30
0
10
38.732747590146559
20
166.50583794650859
30
0
10
38.550097225991387
20
166.50107833715435
30
0
10
38.366685557481439
20
166.49317052369139
30
0
10
37.590002496952586
20
166.45968375148982
30
0
10
36.774323998786009
20
166.37321187686842
30
0
10
35.782923724786819
20
166.24389898049017
30
0
0
LWPOLYLINE
5
1100
100
AcDbEntity
8
INTERIOR_PROFILES
100
AcDbPolyline
90
5
70
1
43
0.0
10
143.42562429767759
20
161.97575203952624
10
136.49742106740203
20
157.9757520395263
10
129.56921783712656
20
161.97575203952638
10
129.56921783712667
20
169.85575203952618
10
143.4256242976777
20
169.85575203952618
0
LWPOLYLINE
5
1101
100
AcDbEntity
8
INTERIOR_PROFILES
100
AcDbPolyline
90
5
70
1
43
0.0
10
313.16562429767771
20
169.85575203952621
10
313.16562429767765
20
161.97575203952624
10
306.23742106740201
20
157.97575203952633
10
299.3092178371266
20
161.97575203952638
10
299.30921783712671
20
169.85575203952618
0
LWPOLYLINE
5
1102
100
AcDbEntity
8
INTERIOR_PROFILES
100
AcDbPolyline
90
5
70
1
43
0.0
10
369.74562429767758
20
161.97575203952624
10
362.81742106740205
20
157.9757520395263
10
355.88921783712658
20
161.97575203952641
10
355.88921783712669
20
169.85575203952621
10
369.74562429767775
20
169.85575203952621
0
LWPOLYLINE
5
1103
100
AcDbEntity
8
INTERIOR_PROFILES
100
AcDbPolyline
90
4
70
1
43
0.0
10
4.480000000000004
20
28.815752039526203
10
4.480000000000004
20
40.694263092096747
10
11.40562429767769
20
36.695752039526226
10
11.405624297677583
20
28.815752039526203
0
LWPOLYLINE
5
1104
100
AcDbEntity
8
INTERIOR_PROFILES
100
AcDbPolyline
90
5
70
1
43
0.0
10
299.30921783712671
20
36.69575203952639
10
306.23742106740224
20
40.695752039526312
10
313.16562429767771
20
36.695752039526226
10
313.16562429767765
20
28.815752039526185
10
299.30921783712654
20
28.815752039526195
0
LWPOLYLINE
5
1105
100
AcDbEntity
8
INTERIOR_PROFILES
100
AcDbPolyline
90
5
70
1
43
0.0
10
72.989217837126645
20
36.695752039526397
10
79.917421067402216
20
40.695752039526312
10
86.845624297677688
20
36.695752039526226
10
86.845624297677631
20
28.81575203952621
10
72.989217837126546
20
28.81575203952621
0
LWPOLYLINE
5
1106
100
AcDbEntity
8
INTERIOR_PROFILES
100
AcDbPolyline
90
5
70
1
43
0.0
10
54.129217837126689
20
36.69575203952639
10
61.057421067402196
20
40.695752039526312
10
67.985624297677703
20
36.695752039526226
10
67.985624297677589
20
28.815752039526203
10
54.129217837126582
20
28.815752039526199
0
LWPOLYLINE
5
1107
100
AcDbEntity
8
INTERIOR_PROFILES
100
AcDbPolyline
90
5
70
1
43
0.0
10
374.74921783712665
20
36.69575203952639
10
381.67742106740218
20
40.695752039526312
10
388.60562429767765
20
36.695752039526226
10
388.60562429767759
20
28.815752039526185
10
374.74921783712654
20
28.815752039526185
0
LINE
5
1108
100
AcDbEntity
8
INTERIOR_PROFILES
100
AcDbLine
10
319.19972565317886
20
37.290716004526104
30
0
11
318.16921783712672
21
36.695752039526397
31
0
0
LINE
5
1109
100
AcDbEntity
8
INTERIOR_PROFILES
100
AcDbLine
10
318.16921783712672
20
36.695752039526397
30
0
11
318.16921783712655
21
28.815752039526188
31
0
0
LINE
5
1110
100
AcDbEntity
8
INTERIOR_PROFILES
100
AcDbLine
10
318.16921783712655
20
28.815752039526188
30
0
11
332.02562429767761
21
28.815752039526185
31
0
0
LINE
5
1111
100
AcDbEntity
8
INTERIOR_PROFILES
100
AcDbLine
10
332.02562429767761
20
28.815752039526185
30
0
11
332.02562429767772
21
36.695752039526226
31
0
0
LINE
5
1112
100
AcDbEntity
8
INTERIOR_PROFILES
100
AcDbLine
10
332.02562429767772
20
36.695752039526226
30
0
11
331.2188310281885
21
37.161554350846203
31
0
0
SPLINE
5
1113
100
AcDbEntity
8
INTERIOR_PROFILES
100
AcDbSpline
70
0
71
3
72
11
73
7
74
0
42
0.000000001
43
0.0000000001
44
0.0000000001
40
-1
40
-1
40
-1
40
-1
40
-0.85253891353590716
40
-0.85253891353590716
40
-0.85253891353590716
40
-0.6165848222880751
40
-0.6165848222880751
40
-0.6165848222880751
40
-0.6165848222880751
10
325.46187743544579
20
36.637805014227112
30
0
10
326.22577152820656
20
36.637805014227126
30
0
10
326.97971214692308
20
36.662553271482821
30
0
10
327.72354596990215
20
36.713058774748568
30
0
10
328.9137625751701
20
36.793873180852813
30
0
10
330.08089713620359
20
36.942685113164224
30
0
10
331.2188310281885
20
37.161554350846203
30
0
0
SPLINE
5
1114
100
AcDbEntity
8
INTERIOR_PROFILES
100
AcDbSpline
70
0
71
3
72
8
73
4
74
0
42
0.000000001
43
0.0000000001
44
0.0000000001
40
-0.31714156971949459
40
-0.31714156971949459
40
-0.31714156971949459
40
-0.31714156971949459
40
-0
40
-0
40
-0
40
-0
10
319.19972565317892
20
37.290716004526104
30
0
10
321.20021148505782
20
36.849755459577153
30
0
10
323.29750553310487
20
36.637805014227126
30
0
10
325.46187743544579
20
36.637805014227112
30
0
0
LINE
5
1115
100
AcDbEntity
8
INTERIOR_PROFILES
100
AcDbLine
10
13.905624297677939
20
140.9858790584484
30
0
11
20.833827527953481
21
144.98587905844843
31
0
0
LINE
5
1116
100
AcDbEntity
8
INTERIOR_PROFILES
100
AcDbLine
10
20.833827527953481
20
144.98587905844843
30
0
11
20.833827527953446
21
149.16685988351082
31
0
0
SPLINE
5
1117
100
AcDbEntity
8
INTERIOR_PROFILES
100
AcDbSpline
70
0
71
3
72
11
73
7
74
0
42
0.000000001
43
0.0000000001
44
0.0000000001
40
-0.86014493133868508
40
-0.86014493133868508
40
-0.86014493133868508
40
-0.86014493133868508
40
-0.56679265852029947
40
-0.56679265852029947
40
-0.56679265852029947
40
-0.39206528327591217
40
-0.39206528327591217
40
-0.39206528327591217
40
-0.39206528327591217
10
17.618427957448869
20
154.84229086603148
30
0
10
17.794258516689393
20
153.60255296399552
30
0
10
18.192649914013245
20
152.29403405230536
30
0
10
19.000877302807133
20
151.08236644880196
30
0
10
19.482276164618586
20
150.36066929610979
30
0
10
20.118214183403321
20
149.70096842135302
30
0
10
20.833827527953453
20
149.16685988351082
30
0
0
LINE
5
1118
100
AcDbEntity
8
INTERIOR_PROFILES
100
AcDbLine
10
17.618427957448869
20
154.84229086603148
30
0
11
13.905624297677903
21
156.98587905844843
31
0
0
LINE
5
1119
100
AcDbEntity
8
INTERIOR_PROFILES
100
AcDbLine
10
13.905624297677903
20
156.98587905844843
30
0
11
6.9774210674024317
21
152.9858790584484
31
0
0
LINE
5
1120
100
AcDbEntity
8
INTERIOR_PROFILES
100
AcDbLine
10
6.9774210674024317
20
152.9858790584484
30
0
11
6.9774210674024673
21
144.9858790584484
31
0
0
LINE
5
1121
100
AcDbEntity
8
INTERIOR_PROFILES
100
AcDbLine
10
6.9774210674024673
20
144.9858790584484
30
0
11
13.905624297677939
21
140.9858790584484
31
0
0
LWPOLYLINE
5
1122
100
AcDbEntity
8
INTERIOR_PROFILES
100
AcDbPolyline
90
6
70
1
43
0.0
10
20.833827527953481
20
78.345879058448418
10
13.905624297677939
20
74.345879058448389
10
6.9774210674024673
20
78.345879058448389
10
6.9774210674024317
20
86.345879058448389
10
13.905624297677903
20
90.345879058448418
10
20.833827527953446
20
86.345879058448418
0
LWPOLYLINE
5
1123
100
AcDbEntity
8
INTERIOR_PROFILES
100
AcDbPolyline
90
6
70
1
43
0.0
10
39.693827527953438
20
45.025879058448417
10
32.765624297677967
20
41.025879058448389
10
25.837421067402424
20
45.025879058448375
10
25.837421067402389
20
53.025879058448382
10
32.765624297677931
20
57.025879058448396
10
39.693827527953403
20
53.025879058448417
0
LWPOLYLINE
5
1124
100
AcDbEntity
8
INTERIOR_PROFILES
100
AcDbPolyline
90
6
70
1
43
0.0
10
67.985624297677589
20
95.335752039526227
10
61.057421067402018
20
91.335752039526312
10
54.129217837126546
20
95.335752039526383
10
54.129217837126653
20
103.3357520395264
10
61.057421067402196
20
107.33575203952631
10
67.985624297677674
20
103.33575203952623
0
LWPOLYLINE
5
1125
100
AcDbEntity
8
INTERIOR_PROFILES
100
AcDbPolyline
90
6
70
1
43
0.0
10
77.413827527953458
20
45.02587905844841
10
70.485624297677987
20
41.025879058448389
10
63.557421067402409
20
45.025879058448382
10
63.557421067402444
20
53.025879058448389
10
70.485624297677958
20
57.025879058448403
10
77.413827527953458
20
53.02587905844841
0
LWPOLYLINE
5
1126
100
AcDbEntity
8
INTERIOR_PROFILES
100
AcDbPolyline
90
4
70
1
43
0.0
10
393.60921783712661
20
128.65575203952636
10
393.60921783712672
20
136.65575203952639
10
400.5200000000001
20
140.64569398157207
10
400.5200000000001
20
124.66581009748043
0
LWPOLYLINE
5
1127
100
AcDbEntity
8
INTERIOR_PROFILES
100
AcDbPolyline
90
5
70
1
43
0.0
10
91.849217837126673
20
169.85575203952618
10
105.7056242976777
20
169.85575203952618
10
105.70562429767762
20
161.97575203952624
10
98.777421067402031
20
157.9757520395263
10
91.84921783712656
20
161.97575203952641
0
LINE
5
1128
100
AcDbEntity
8
BEND
100
AcDbLine
10
405
20
184.45362805928926
30
-1.8873791418627661e-14
11
0
21
184.45362805928923
31
-2.0539125955565396e-14
0
LINE
5
1129
100
AcDbEntity
8
BEND
100
AcDbLine
10
0
20
14.217876019763098
30
-1.1102230246251565e-15
11
405
21
14.217876019763098
31
-2.7755575615628894e-15
0
LINE
5
1130
100
AcDbEntity
8
BEND_EXTENT
100
AcDbLine
10
0
20
185.47150407905232
30
-1.7763568394002505e-14
11
405
21
185.47150407905232
31
1.7763568394002505e-14
0
LINE
5
1131
100
AcDbEntity
8
BEND_EXTENT
100
AcDbLine
10
405
20
183.43575203952616
30
0
11
0
21
183.43575203952614
31
0
0
LINE
5
1132
100
AcDbEntity
8
BEND_EXTENT
100
AcDbLine
10
405
20
13.199999999999994
30
0
11
0
21
13.200000000000003
31
0
0
LINE
5
1133
100
AcDbEntity
8
BEND_EXTENT
100
AcDbLine
10
3.5527136788005009e-14
20
15.235752039526194
30
0
11
405
21
15.235752039526194
31
0
0
ENDSEC
0
SECTION
2
OBJECTS
0
DICTIONARY
5
C
100
AcDbDictionary
3
ACAD_GROUP
350
D
3
ACAD_MLINESTYLE
350
17
0
DICTIONARY
5
D
100
AcDbDictionary
0
DICTIONARY
5
1A
330
C
100
AcDbDictionary
0
DICTIONARY
5
17
100
AcDbDictionary
0
ENDSEC
0
EOF
